Song name
# A B C D E F G H I J K L M N O P Q R S T U V W X Y Z

Hikaru Utada - Sanctuary tab

Intro (vocal)
e-------------------------------------------------|
B-----------------------12------------------------|
G--9-9-11-9-8-9---8-9------9--8--9----------------|
D-------------------------------------------------|
A-------------------------------------------------|
E-------------------------------------------------|

Electric Guitar Piece
e--9----------------|
B-----10---/12--/9--|
G-------------------|
D-------------------|
A-------------------|
E-------------------|

Bass (End of Intro)
-------------------------------------------------|
-------------------------------------------------|
-------------------------------------------------|
-------------------------------------------------|
-7-7-7-9-----------------------------------------|
-------------------------------------------------|

electreic guitar part
e--9----------------|
B-----10---/12--/9--|
G-------------------|
D-------------------|
A-------------------|
E-------------------|

IN YOU AND I THERES A MILLION
e-----------------------------------------|
B-7--9--7-9-----7--9---12-----------------|
G-----------9------------------9--8-9-11--|
D-----------------------------------------|
A-----------------------------------------|
E-----------------------------------------|

MY SANCTUARY, MY SANCTUARY
----------------------------------------|
-----10-9-----------10--9---------------|
--9-------9--11--9---------11-----------|
-------------------------------11-------|
----------------------------------------|
----------------------------------------|

WHERE FEARS AND LIES MELT AWAY
----------------------------------------------------------------|
-7--9---7--9------7--9---12-------------------------------------|
---------------9--------------9-8-9-----------------------------|
----------------------------------------------------------------|
----------------------------------------------------------------|
----------------------------------------------------------------|

MUSIC WILL DYE (WHATS LEFT OF ME)
e----------------------------------------------------|
B--7-7-7--9-------------10-9----------10-9-----------|
G---------------------9------9-11---9------9-11------|
D------------------------------------------------11--|
A----------------------------------------------------|
E----------------------------------------------------|

I WATCH YOU FAST ASLEEP
e------------------------------|
B----------------9-------------|
G-----9---11-----------9h11p9--|
D--11---------------11---------|
A------------------------------|
E------------------------------|

"All I Fear... Is broken"
-------------------------------------------------|
-------------------------------------------------|
-------------------------------------------------|
-------------------------------------------------|
-12-11------7-9----------------------------------|
--------9-9--------------------------------------|

electreic guitar part
e--9----------------|
B-----10---/12--/9--|
G-------------------|
D-------------------|
A-------------------|
E-------------------|

IN YOU AND I THERES A MILLIOOOOON   (ANGELS IN FLIGHT)
e-------------------------------------------|
B-7--9--7-9-----7--9---12-------------------|
G-----------9------------------9--8-9-11----|
D-------------------------------------------|
A-------------------------------------------|
E-------------------------------------------|

MY SANCTUARY, MY SANCTUARY
-------------------------------------------|
-----10-9-----------10--9------------------|
--9-------9--11--9---------11--------------|
-------------------------------11----------|
-------------------------------------------|
-------------------------------------------|

WHERE FEARS AND LIES MELT AWAY
----------------------------------------------------------------------|
-7--9---7--9------7--9---12-------------------------------------------|
---------------9--------------9-8-9-----------------------------------|
----------------------------------------------------------------------|
----------------------------------------------------------------------|
----------------------------------------------------------------------|

MUSIC WILL DYE (WHATS LEFT OF ME)
e----------------------------------------------------|
B--7-7-7--9-------------10-9----------10-9-----------|
G---------------------9------9-11---9------9-11------|
D------------------------------------------------11--|
A----------------------------------------------------|
E----------------------------------------------------|

MY HEARTS A BATTLE GROUND
|---------------------------------------------------------------|
|---------------------------------------------------------------|
|---------------------------------------------------------------|
|-------------------9---9---9---9------------------11-11-11-11--|
|---11-11-11----7---7---7---7---9---9---9----9---9---9---9------|
|---9---9---9-----------------------7---7---7-------------------|

YOU SHOW ME HOW TO SEE
------------------------------------------------------|
------------------------------------------------------|
---7-9--12-----7----7-9---7---12-11---7-----7----9----|
-9-----------9----9-----7---9------------9------------|
------------------------------------------------------|
------------------------------------------------------|

electreic guitar part
e--9----------------|
B-----10---/12--/9--|
G-------------------|
D-------------------|
A-------------------|
E-------------------|

IN YOU AND I THERES A MILLIOOOOON   (ANGELS IN FLIGHT)
e-------------------------------------------|
B-7--9--7-9-----7--9---12-------------------|
G-----------9------------------9--8-9-11----|
D-------------------------------------------|
A-------------------------------------------|
E-------------------------------------------|

MUSIC WILL DYE (WHATS LEFT OF ME)
e----------------------------------------------------|
B--7-7-7--9-------------10-9----------10-9-----------|
G---------------------9------9-11---9------9-11------|
D------------------------------------------------11--|
A----------------------------------------------------|
E----------------------------------------------------|

MY SANCTUARY, MY SANCTUARY
-------------------------------------------|
-----10-9-----------10--9------------------|
--9-------9--11--9---------11--------------|
-------------------------------11----------|
-------------------------------------------|
-------------------------------------------|

WHERE FEARS AND LIES MELT AWAY
----------------------------------------------------------------------|
-7--9---7--9------7--9---12-------------------------------------------|
---------------9--------------9-8-9-----------------------------------|
----------------------------------------------------------------------|
----------------------------------------------------------------------|
----------------------------------------------------------------------|

MUSIC WILL DYE (WHATS LEFT OF ME)
e----------------------------------------------------|
B--7-7-7--9-------------10-9----------10-9-----------|
G---------------------9------9-11---9------9-11------|
D------------------------------------------------11--|
A----------------------------------------------------|
E----------------------------------------------------|

OH (MY FEARS) (MY LIES)
----------------------------------------------------|
----------------------------------------------------|
--15---17----15------17^x1--------------------------|
----------------------------------------------------|
----------------------------------------------------|
----------------------------------------------------|

MELT AWAY
--------------------------------------------|
-----7---9---12-----------------------------|
--9-----------------9--8--9-----------------|
--------------------------------------------|
--------------------------------------------|
--------------------------------------------|

END
--------------------------------------------|
--------------------------------------------|
7-7-9-7-------------------------------------|
---------11---12----------------------------|
--------------------------------------------|
--------------------------------------------|
Tap to rate this tab
 
# A B C D E F G H I J K L M N O P Q R S T U V W X Y Z