Hikaru Utada - Sanctuary tab

You should definetly listen to the song first because this version may have 
certain parts that other versions don't. 
- King Duck

E|--9------------|
B|----10--12--9--|
G|---------------|  x2
D|---------------|
A|---------------|
E|---------------|

CHORUS
E|------------------------------------------------------------------|
B|--5-10-9-5-7-9-7--5-5-9-12-5-4-5-7-9--7-7-7-9-10-10-9-10-7-7-7-9--|
D|------------------------------------------------------------------|
A|------------------------------------------------------------------|
E|------------------------------------------------------------------|

E|--------------------------------------------------------------|
B|--5-10-9-5-7--5-10-9-5-7-2--5-10-9-5-9-7--5-5-9-12-5-4-5-7-9--|
G|--------------------------------------------------------------|
D|--------------------------------------------------------------|
A|--------------------------------------------------------------|
E|--------------------------------------------------------------|

E|--------------------------------------------------------|
B|--7-7-7-9-10-10-9-10-7-7-7-9--5-10-9-5-7--5-10-9-5-7-2--|
G|--------------------------------------------------------|
D|--------------------------------------------------------|
A|--------------------------------------------------------|
E|--------------------------------------------------------|

E|-----------------------------------|
B|--2-5-7--9-3-5-7-5--10-9-5--2-5-9--|
G|-----------------------------------|
D|-----------------------------------|
A|-----------------------------------|
E|-----------------------------------|

CHORUS

E|--(5-4-5-2)---------------------------------(10-10-9-10-7-7-7-9)--|
B|------------9-9-7-9-10-10-----------------------------------------|
G|---------------------------(6-6-9-5-5-6-6)----------------------------|
D|------------------------------------------------------------------|   |
A|------------------------------------------------------------------|   |
E|------------------------------------------------------------------|   |
                                                                        |
E|-------------------|                                                  |
B|-------------------|                                                  |
G|--(6-6-9-5-5-6-6)--| <-------------------------------------------------
D|-------------------|
A|-------------------|
E|-------------------|

E|--9-9-12-9-9-9-12-12--|
B|----------------------|
G|----------------------| x4
D|----------------------|
A|----------------------|
E|----------------------|

E|-----------------------------------------|
B|--1-3-5--9-3-5-3-5-7-1-3-1-10-9-5-2-5-9--|
G|-----------------------------------------|
D|-----------------------------------------|
A|-----------------------------------------|
E|-----------------------------------------|

CHORUS

E|--------------------|
B|--------------------|
G|--7-8-9-8-11-9-8-6--|
D|--------------------|
A|--------------------|
E|--------------------|

E|----------------------------------------|
B|--10-9--10-9-7-5--5-5-9-12-5-4-5--9/10--|
G|----------------------------------------|
D|----------------------------------------|
A|----------------------------------------|
E|----------------------------------------|
Tap to rate this tab
 
# A B C D E F G H I J K L M N O P Q R S T U V W X Y Z