Song name
# A B C D E F G H I J K L M N O P Q R S T U V W X Y Z

Hikaru Utada - Sakura Drops tab

--------------------------------------------------------------------------------------------
                                  SAKURA DROPS - Utada Hikaru
--------------------------------------------------------------------------------------------
Tabbed by: azumangaoji
Email: kiyone64 @ yahoo . com

Tuning: Standard-EADGBe

Please enjoy one of my favorite Hikki songs, beautiful song and gets me nostalgic 
every time I hear it.

Here are the fingerings I prefer for the chords (generally basic bar chords:
e|----6------8-------3------5------3------|
B|----8------8-------4------6------3------|
G|----7------10------3------5------3------|
D|----8------10------5------7------5------|
A|----6------8-------3------5------5------|
E|----x------x-------x------x------3------|
   Ebmaj7  Fsus2   Cmin7   Dmin7  Gm

CHORUS
Ebmaj7       Fsus2
Koi wo shite owari wo tsuge
Cmin7  Dmin7   Gm
Chikau koto wa kore ga saigo no Heartbreak 

Ebmaj7       Fsus2         Cmin7
Sakura sae kaze no naka de yurete
Dmin7  Gm
Yagate hana wo sakasu yo 


INTERLUDE x2

   Ebmaj7                 Fsus2                 Cmin7      Dmin7                 Gm
e|--------------10----------------------8--------------3-------------5h6p5--------------------3---|
B|--------8----------------------8-------------------4------------6---------------------3---------|
G|------7----7----------------10----10-------------3------------5---------------------3----3------|
D|----8---------------------10--------------------------------7---------------------5-------------|
A|-(6)-------------------(8)--------------------(3)--------(5)------------------------------------|
E|-------------------------------------------------------------------------------(3)--------------|


VERSE (Ebmaj7  Fsus2  Dmin7  Gm) x4

Ebmaj7   Fsus2       Dmin7
Furidashita natsu no ame ga
Gm          Ebmaj7   Fsus2    Dmin7 Gm
Namida no yoko wo totta       su--tto 


Ebmaj7 Fsus2  Dmin7   Gm
Omoide to     DABUru eizou
Ebmaj7   Fsus2       Dmin7 Gm
Aki no DORAMA  no    saihousou 



BRIDGE (Dmin7  Gm  Dmin7  Gm  Ebmaj7  Fsus2  Ebmaj7  D)

Dmin7          Gm        Dmin7
Doushite onaji you na PANCHI 
                 Gm         
Nando mo kuratchaun da
      Ebmaj7        Fsus2
Soredemo mata tatakaun darou
     Ebmaj7            D
Sore ga inochi no fushigi 


CHORUS (Ebmaj7  Fsus2  Cmin7  Dmin7  Gm) x2

Koi wo shite subete sasage 
Negau koto wa kore ga saigo no Heartbreak 
Sakura sae toki no naka de yurete 
Yagate hana wo sakasu yo 


INTERLUDE (Ebmaj7  Fsus2  Cmin7  Dmin7  Gm) x2


VERSE (Ebmaj7  Fsus2  Dmin7  Gm) x2

Kurikaesu kisetsu no naka de 
Kutsu ga suriheratteku motto


BRIDGE (Dmin7  Gm  Dmin7  Gm  Ebmaj7  Fsus2  Ebmaj7  D)
Kata no chikara nuide 
Kako wa dokoka ni shimatte oke 
Koko kara sou tookunai darou 
Mita koto mo nai keshiki 


CHORUS (Ebmaj7  Fsus2  Cmin7  Dmin7  Gm) x11

Tomaranai mune no itami kore de 
Motto kimi ni chikazukitai yo 
Hitomawari shite wa modori 
Aoi sora wo zutto ketsaguri 

Koi wo shite owari wo tsuge 
Chigau koto wa kare ga saisho no good day 
Sakura made kaze no naka de yurete 
Sotto kimi ni te wo nobasu yo 

Suki de suki de doushiyou mo nai 
Sore to kore to wa kankei nai

Enjoy!
Tap to rate this tab
 
# A B C D E F G H I J K L M N O P Q R S T U V W X Y Z