Song name
# A B C D E F G H I J K L M N O P Q R S T U V W X Y Z

Hikaru Utada - Simple And Clean tab

-----------------------------------------------------------------------------
                             Simple and Clean  Hikaru Utada 
-----------------------------------------------------------------------------
Tabbed by:FrozenBlade 24
E-mail:d.hansen757@gmail.com

Tuning:Standard

e|---10-8--------------10-8---------------10-8------------------------------|
B|-8------11-10-11---8------11-10-11---8---------11-10-11------------11-10--|
G|----------------------------------------------------------10101010--------|
D|--------------------------------------------------------------------------|
A|--------------------------------------------------------------------------|
E|--------------------------------------------------------------------------|

e|----11-10-----------13-11-10-8-10-11---10--------10-11-8------------------|
B|-11-------11-10-11-------------------------8-11-----------11-10------10-11|
G|-------------------------------------------------------------------10-----|
D|--------------------------------------------------------------------------|
A|--------------------------------------------------------------------------|
E|--------------------------------------------------------------------------|

e|--------------------------------------------------------------------------|
B|11---------10-11-11---8-11-----10-11-11s13-11--6--------10-11-11---13-----|
G|---------10------------------10------------------8--10---------------12---|
D|--------------------------------------------------------------------------|
A|--------------------------------------------------------------------------|
E|--------------------------------------------------------------------------|

e|--------------------------------------------------------------------------|
B|--------------------------------------------------------------------------|
G|-------------------7-8------------------------7-8----------8--------------|
D|10-9-10-9-10-9-10------10----9-8-9-8-9-8-9-10-----10--8-10---10-10-10-10--|
A|--------------------------------------------------------------------------|
E|--------------------------------------------------------------------------|

e|--------------------------------------------------------------------------|
B|--------------------------------------------------------------------------|
G|7-8-10-10s12--10------12-------13-12------------8--------8---------12-----|
D|-----------------10-------10-9--------9-10--8-10----8-10----10-9----------|
A|--------------------------------------------------------------------------|
E|--------------------------------------------------------------------------|

e|----10-8-------------10-8-------------10-8--------------------------------|
B|-8-------11-10-11--8-------11-10-11--8-----11-10-11---------------11-10-11|
G|------------------------------------------------------10-10-10-10---------|
D|--------------------------------------------------------------------------|
A|--------------------------------------------------------------------------|
E|--------------------------------------------------------------------------|

e|11-10----------13-11-10-8-10-11-10-------10-11-8--------------------------|
B|------11-10-11----------------------8-11-----------11-10----10-11-11------|
G|----------------------------------------------------------10--------------|
D|--------------------------------------------------------------------------|
A|--------------------------------------------------------------------------|
E|--------------------------------------------------------------------------|

e|--------------------------------------------------------------------------|
B|---10-11-11-8-11---10-11-11s13-11--6------10-11-11--13--------------------|
G|-10--------------10------------------8--10------------12------------------|
D|---------------------------------------------------------10-9-10-9-10-9-10|
A|--------------------------------------------------------------------------|
E|--------------------------------------------------------------------------|



e|--------------------------------------------------------------------------|
B|--------------------------------------------------------------------------|
G|7-8-----------------------7-8-----------8---------------7-8-10-10s12--10--|
D|-----10--9-8-9-8-9-8-9-10------10--8-10-----10-10-10-10-----------------10|
A|--------------------------------------------------------------------------|
E|--------------------------------------------------------------------------|



e|--------------------------------------------------10-8-------------10-8---|
B|12-------13-12-------------8------8-------12----8-------11-10-11-8--------|
G|---10-9---------9-10--8-10---8-10----10-9---------------------------------|
D|--------------------------------------------------------------------------|
A|--------------------------------------------------------------------------|
E|--------------------------------------------------------------------------|



e|------------10-8-----------------------------------11-10-----------13-11--|
B|11-10-11---8------11-10-11--------------11-10-11---------11-10-11---------|
G|---------------------------10-10-10-10------------------------------------|
D|--------------------------------------------------------------------------|
A|--------------------------------------------------------------------------|
E|--------------------------------------------------------------------------|




e|10-8-10-11--10------10-11-8-----------13-------13-13-15-13-11-10-11-13----|
B|---------------8-11----------11-10-------11-11------------------------1111|
G|--------------------------------------------------------------------------|
D|--------------------------------------------------------------------------|
A|--------------------------------------------------------------------------|
E|--------------------------------------------------------------------------|




e|----11-10-11--------------------------------------------------------------|
B|--11---------13----11-10-11----10-11--------------------------------11----|
G|12---------------------------10-----10-8-7-8-7-8-7-8-8-10-12--10-12-------|
D|--------------------------------------------------------------------------|
A|--------------------------------------------------------------------------|
E|--------------------------------------------------------------------------|





e|--10--8-11-10-------10-8-------------10-8-------------10-8----------------|
B|-----------------8--------11-10-11--8-----11-10-11--8-------11-10-11------|
G|10------------------------------------------------------------------10-10-|
D|--------------------------------------------------------------------------|
A|--------------------------------------------------------------------------|
E|--------------------------------------------------------------------------|




e|-----------------11-10------------13-11-10-8-10-11-10-------10-11-8-------|
B|-------11-10-11---------11-10-11-----------------------8-11---------11-10-|
G|10-10---------------------------------------------------------------------|
D|--------------------------------------------------------------------------|
A|--------------------------------------------------------------------------|
E|--------------------------------------------------------------------------|




e|13------13-13-15-13-11-10-11-13------------11-10-11-----------------------|
B|--11-11-------------------------11-11----11---------13--11-10-11---10-11--|
G|--------------------------------------12-------------------------10-------|
D|--------------------------------------------------------------------------|
A|--------------------------------------------------------------------------|
E|--------------------------------------------------------------------------|



e|------------------------------------10--8-11-10----10-8------------10-8---|
B|------------------------------11-----------------8------11-10-11--8-------|
G|10-8-7-8-7-8-7-8-8-10-12-10-12----10--------------------------------------|
D|--------------------------------------------------------------------------|
A|--------------------------------------------------------------------------|
E|--------------------------------------------------------------------------|



e|-------------10-8--------------------------------13-11-10-8-10-11-10------|
B|11-10-11---8------11-10-11--------------11-10-11--------------------------|
G|----------------------------10-10-10-10-----------------------------------|
D|--------------------------------------------------------------------------|
A|--------------------------------------------------------------------------|
E|--------------------------------------------------------------------------|




e|-----10-11-8--------------------------------------------------------------|
B|8-11---------11-10--------------------------------------------------------|
G|--------------------------------------------------------------------------|
D|--------------------------------------------------------------------------|
A|--------------------------------------------------------------------------|
E|--------------------------------------------------------------------------|

************************************

| /   slide up
| \   slide down
| h   hammer-on
| p   pull-off
| ~   vibrato
| +   harmonic
| x   Mute note
| b   Bend
| pb  Pre-bend
| br  Bend release
| pbr Pre-bend release
| brb Bend release bend

************************************

Tap to rate this tab
# A B C D E F G H I J K L M N O P Q R S T U V W X Y Z