Guitaretab - guitar tabs
Song name
# A B C D E F G H I J K L M N O P Q R S T U V W X Y Z

Hikaru Utada - Hear Me Cry tab

Hear me Cry
by Hikaru Utada

Tabbed by: *Nikki ni Norelle*
for Questions/Comments e-mail me: 80sBlues@gmail.com

Intro/Verse:

E|--19------19------19------19--17--17--15------------|
B|------17------17------17----------------------------|
G|----------------------------------------------------|
D|----------------------------------------------------|
A|----------------------------------------------------|
E|----------------------------------------------------|

E|---------15--15---------------|---------17--15------|
B|--17h19----------19--19--15---|-19--15--------------|
G|------------------------------|---------------------|
D|------------------------------|---------------------|
A|------------------------------|---------------------|
E|------------------------------|---------------------|

E|--19------19------19------19--17--17--15------------|
B|------17------17------17----------------------------|
G|----------------------------------------------------|
D|----------------------------------------------------|
A|----------------------------------------------------|
E|----------------------------------------------------|

E|---------15--15------15--17--15-|---------17--15----|
B|--17h19----------19-------------|-19--15------------|
G|--------------------------------|-------------------|
D|--------------------------------|-------------------|
A|--------------------------------|-------------------|
E|--------------------------------|-------------------|

Adlib:
[ Tab from: http://www.guitaretab.com/h/hikaru-utada/47492.html ]
E|--19------15--19--19--17----------15----------------|
B|------17------------------19--15--------------------|
G|----------------------------------------------------|
D|----------------------------------------------------| 2x
A|----------------------------------------------------|
E|----------------------------------------------------|

Outro:

E|--15--17--19--19--19--17--17--15--------------------|
B|----------------------------------------------------|
G|----------------------------------------------------|
D|----------------------------------------------------|
A|----------------------------------------------------|
E|----------------------------------------------------|

E|---------15--15---------------|---------17--15------|
B|--17h19----------19--19--15---|-19--15--------------|
G|------------------------------|---------------------|
D|------------------------------|---------------------|
A|------------------------------|---------------------|
E|------------------------------|---------------------|

E|--19--19--19--17--17--15----------------------------|
B|----------------------------------------------------|
G|----------------------------------------------------|
D|----------------------------------------------------|
A|----------------------------------------------------|
E|----------------------------------------------------|

E|---------15--15------15--17--15-|---------17--15----|
B|--17-------------19-------------|-19--15------------|
G|--------------------------------|-------------------|
D|--------------------------------|-------------------|
A|--------------------------------|-------------------|
E|--------------------------------|-------------------|


*Btw, this is my 1st tab.. LOL* ^.^

Please Rate _
Related for Hear Me Cry tab