Song name
# A B C D E F G H I J K L M N O P Q R S T U V W X Y Z

Hikaru Utada - Be My Last tab

~ Utada Hikaru ~
-="Be My Last"=-

video here:
http://www.youtube.com/watch?v=n4BDf0gMu78&search=be%20my%20last%20internet
---------------------------------------------------------------------------

[verse1]
|--------------|
|--------------|
|--2----1------|
|--2----2------|  (4x)
|--2----2------|
|--------------|
Kaasan doushite sodateta monomade
Jibun de kowasanakya
Naranai hi ga kuru no

[pre-chorus]
|--3----2----2----3----|
|--3----2----2----3----|
|--0----4----2----0----|  (2x)
|--2----4----4----0----|
|--3----2----4----2----|
|--0----2----2----3----|
haaa...
Barabara ni natta koraaju
Suterarenai no wa
Nani mo tsunagenai de
Kimi no te tsunaida toki datte

[interlude]
|-------------------|
|---0----0----0--0--|
|---0----0----0--0--|
|---x----4----2--4--|
|---7----5----3--5--|
|---7----5----3--5--|

[chorus]
|------------------------------|
|--0----0---0--0---------------|
|--0----0---0--0---------------|
|--2----4---x--4---------------| (3x)
|--3----5---7--5---------------|
|--3----5---7--5---------------|
Be my last, be my last, be my last
Be my last, douka kimi ga, be my last

[verse2] (= verse1)
Narenai doushide
Yoku ganbatta ne
Machigatta koi wo shitakedo
Machigaide wanakatta

[pre-chorus]
|--3----2----2----3----|
|--3----2----2----3----|
|--0----4----2----0----|  (2x)
|--2----4----4----0----|
|--3----2----4----2----|
|--0----2----2----3----|
haa...haha..hahahaaa
Nani mo tsukamenaide
Yume miteta no wa doko made

[interlude] 
|-------------------|
|---0----0----0--0--|
|---0----0----0--0--|
|---x----4----2--4--|
|---7----5----3--5--|
|---7----5----3--5--|

(chorus)
|------------------------------|
|--0----0---0--0---------------|
|--0----0---0--0---------------|
|--2----4---x--4---------------| (2x)
|--3----5---7--5---------------|
|--3----5---7--5---------------|
With my hands, with my hands, with my hands
With my hands, watashi no te de, be my last

[bridge]
|------------------|------------|
|---0----0----0--0-|---0----0---|
|---0----0----0--0-|---0----0---|
|---x----4----2--4-|---x----4---|
|---7----5----3--5-|---7----5---|
|---7----5----3--5-|---7----5---|
Itsuka musubareruyori
Konya ichijikan aitai

|--3----2----2----3---x--3-|
|--3----2----2----3---3--3-|
|--0----4----2----0---0--0-|  
|--2----4----4----0---1--0-|
|--3----2----4----2---0--2-|
|--0----2----2----3---0--3-|
Nani mo tsunagenaide
Otona butteta no wa dare

(just play the chorus till the end)
|------------------------------|
|--0----0---0--0---------------|
|--0----0---0--0---------------|
|--2----4---x--4---------------|
|--3----5---7--5---------------|
|--3----5---7--5---------------|
haa...hahaha...
Be my last, be my last, be my last
Be my last, douka kimi ga, be my last
Tap to rate this tab
 
# A B C D E F G H I J K L M N O P Q R S T U V W X Y Z