Song name
# A B C D E F G H I J K L M N O P Q R S T U V W X Y Z

Hikaru Utada - Deep River tab

Hikaru Utada- Deep River
Tabbed By: Andrew H
Email: Skinnyaznkid@aim.com
Standard Tuning

Just the intro/verse. Its repeated i think.  
  
E||----------------------|----------------------|-----------------------|
B||----------------------|----------------------|-----------------------|
G||-----------------5----|-----------------5----|-----------------------|
D||------------8---------|------------8---------|------------8----10----|
A||-------6--------------|-------6--------------|-------8---------------|
E||--4-------------------|--4-------------------|--6--------------------|


 
-----------------------|----------------|----------------------|
-----------------------|----------------|----------------------|
-----------------------|----------------|-------1--------------|
------------8----10----|----------------|--5-------------------|
-------8---------------|-----------3----|-----------------3----|
--6--------------------|--4-3-1---------|------------1---------|


----------------------|-------1--------------|-----------------1----|
----------------------|--4---------4---------|------------4---------|
-------1---------3----|-----------------3----|-------3--------------|
--5---------1---------|----------------------|--1-------------------|
----------------------|----------------------|----------------------|
----------------------|----------------------|----------------------|


 
------------||
--4---------||
-------3----||
------------||
------------||
------------||
Tap to rate this tab
# A B C D E F G H I J K L M N O P Q R S T U V W X Y Z