Guitaretab - guitar tabs
Song name
# A B C D E F G H I J K L M N O P Q R S T U V W X Y Z

Hilary Duff - Sweet Sixteen tab

Highlighted       Show chord diagrams
Here is another nice song bye hilary duff. tabbed By EC

standard tunning


Intro : ( E B A x 2 )
        
        riff 1
        -0-4-2-4-0--------------4-2-4-0-----------2-
        -----------5-4-5-4-5-0----------5-4-5-4-5---
        --------------------------------------------
        --------------------------------------------
        --------------------------------------------
        --------------------------------------------
B               E
Today I'm gonna ride away
    B                   E
And feel the sun throughout my hair
B                   E
Finally free to be who I wanna be
B             E
Who that is I don't really care

      E       B
'Cuz I've got friends who love me
E          B
Blue skies are above me
   D             B     A
My blond hair is everywhere


chorus 
[ Tab from: http://www.guitaretab.com/h/hilary-duff/130061.html ]
(sweet sixteen)
E     B         A
Gonna spread my wings
(sweet sixteen)
E       B         A
It's my chance to shine
(sweet sixteen)
E   B   A
Discovering
(sweet sixteen)
D               B
So much more to life
(sweet sixteen)

(E B A x 2 ) Riff 1

Drivin' down to the club where we go to dance
Radio is blastin' and the top is down
There ain't nothing in my way
'Cept the trafic of LA

And I've got friends who love me
Bright stars shine above me
My blond hair is everywhere

Chorus

E      B           E             B      
Mamma loves me and a sister who shows me
    D        B      A 
And daddy is always there

E B A x 3  
D B

Riff 2
E -0-0-0-0-0-0-0-0-0-0-0-0-2-4-0-0-0-0-0-0-0-0-0-0-0-0-2-4--
B ----------------------------------------------------------

E -0-0-0-0-0-0-0-0-0-0-0-0-2-4-2-2-2-2-2-2-2-2-2-2-2-2-2-2-
B ---------------------------------------------------------

Chorus

E B     A
I wanna know what it feels like
E  B      A
I need to see from the inside
E     B       A
I can taste a bit of what I will find
E                B
So much more to life
Sweet sixteen

Repeat
Related for Sweet Sixteen tab
Advertisement will be closed in 10 seconds