Song name
# A B C D E F G H I J K L M N O P Q R S T U V W X Y Z

Hilary Duff - Mr James Dean tab

----------------------------------------------------------------------------
	           Mr. James Dean - Hilary Duff
----------------------------------------------------------------------------
Tabbed by:!!Jmsy!!
Email:jamesy_ha_ha@Yahoo.co.uk

Tuning:Standard

e|-10-9-10----10p7-7\5---|--------------------------------------------------|
B|-----------------------|--********----------------------------------------|
G|--Inrto--x12-----------|--99999999----44444444-----77777777---------------|
D|-----------------------|--99999999----44444444-----77777777----77777777---|
A|-----------------------|--77777777----22222222-----55555555----77777777---|
E|-----------------------|---------------------------------------55555555---|

e|--------------------------------------------------------------------------|
B|--------------------------------------------------------------------------|
G|--99-9^-99-9^-----44444444---77777777---------------99-9^-99-9^-----------|
D|--99----99--------44444444---77777777---77777777----99----99--------------|
A|--77----77--------22222222---55555555---77777777----77----77--------------|
E|----------------------------------------55555555--------------------------|

e|--10-9-10---10p7-7\5--|---------------------------------------------------|
B|----------------------|---------------------------------------------------|
G|------------x8--------|--44444444---77777777-------------99-9^-99-9^------|
D|----------------------|--44444444---77777777--77777777---99----99---------|
A|----------------------|--22222222---55555555--77777777---77----77-----x2--|
E|----------------------|-----------------------55555555--------------------|

e|--------------------------------------------------------------------------|
B|--------------------------------------------------------------------------|
G|------------------------99999999---999999---------------------------------|
D|--55555555---77777777---99999999---999999------x2-------------------------|
A|--55555555---77777777---77777777---777777---------------------------------|
E|--33333333---55555555-----------------------------------------------------|
  Solo
e|--------------------------------------------------------------------------|
B|--------------------------------------------------------------------------|
G|-44-44444---777777-----9/11\9--99----9/11\9-----9/11\9-9------------------|
D|-44----4----77--7--------------------------------------9------------------|
A|-22----2----55--5------7/-9\7--77----7/-9\7-----7/-9\7-7------------------|
E|--------------------------------------------------------------------------|

e|--------------------------------------------------------------------------|
B|--------------------------------------------------------------------------|
G|-44-44444---777777-----9/11\9--99----9/11\9-----9/11\9-9------------------|
D|-44----4----77--7--------------------------------------9------------------|
A|-22----2----55--5------7/-9\7--77----7/-9\7-----7/-9\7-7------------------|
E|--------------------------------------------------------------------------|

e|----------------10-10-10--10----------------------------------------------|
B|----------------10-10-10--------------------------------------------------|
G|-44-444444------7--7--7-------44-2------2h44444p2-----777--42-------------|
D|-44-----4--------------------------4--------------4-----------4-----------|
A|-22-----2-----------------------------------------------------------------|
E|--------------------------------------------------------------------------|

e|--------------------------------------------------------------------------|
B|--------------------------------------------------------------------------|
G|--------------------------------------------------------------------------|
D|--------------------------------------------------------------------------|
A|-------------5555---------------------------------------------------------|
E|-5h7-777p5-2--------7-5-2--5h7-7-7^-7^-7^---------------------------------|

e|--------------------------------------------------------------------------|
B|--------------------------------------------------------------------------|
G|-44444444--77777777--------------99-9^-99-^-------------------------------|
D-44444444--77777777--77777777----99----99----------------------------------|
A|-22222222--55555555--77777777----77----77-----x2--------------------------|
E|---------------------55555555---------------------------------------------|
  2nd Solo
e|--------------------------------------------------------------------------|
B|-10h12-12-12-12-10------15-15-15-15-12-10-7--10h12-12-12-12-10------------|
G|-------------------11------------------------------------------11---------|
D|--------------------------------------------------------------------------|
A|--------------------------------------------------------------------------|
E|--------------------------------------------------------------------------|

e|--------17^17^------------------------------------------------------------|
B|--15-15------------10h12-12-12-12-10-----15-15-15-15-12-10-7--------------|
G|-------------------------------------11-----------------------------------|
D|--------------------------------------------------------------------------|
A|--------------------------------------------------------------------------|
E|--------------------------------------------------------------------------|

e|------------------------------------------|-10-9-10-10p7-7\5--------------|
B|-10h12-12-12-12-10----15-15-15-15-12-10-7-|-------------------------------|
G|-------------------11---------------------|-------------------x4----------|
D|------------------------------------------|-------------------------------|
A|------------------------------------------|-------------------------------|
E|------------------------------------------|-------------------------------|

               And Thats It I Fink Its All Correct But Email Me If U
                      Av Any Corrections Thanx!!!!!!!  C Ya
Tap to rate this tab
# A B C D E F G H I J K L M N O P Q R S T U V W X Y Z