Song name
# A B C D E F G H I J K L M N O P Q R S T U V W X Y Z

Hilera - Pot Of Gold tab

e-----------------|      e-----------------------------------------|
b-----------------|      b-----------------------------------------|
g-8-8-8-8---------|      g-----------------------------------------|
d-8-8-8-8-6-6-8-8-| (4x) d-10-10-10-10-10-10-10-10-8-8-8-8-8-8-8-8-|
a-6-6-6-6-6-6-8-8-|      a-10-10-10-10-10-10-10-10-8-8-8-8-8-8-8-8-|
e---------4-4-6-6-|      e--8--8--8--8--8--8--8--8-6-6-6-6-6-6-6-6-|

who wrote the rules that God made? who made the signs that haunt me?
e-----------------|                e-----------------|
b-----------------|                b-----------------|
g-8-8-8-8---------|                g-8-8-8-8---------|
d-8-8-8-8-6-6-8-8-|                d-8-8-8-8-6-6-8-8-|
a-6-6-6-6-6-6-8-8-|                a-6-6-6-6-6-6-8-8-|
e---------4-4-6-6-|                e---------4-4-6-6-|

who broke the window? who ate the carpets? who said the end is near?!
e-----------------------------------------|
b-----------------------------------------|
g-----------------------------------------|
d-10-10-10-10-6-6-8-8-10-10-10-10-4-4-4-4-|
a-10-10-10-10-6-6-8-8-10-10-10-10-4-4-4-4-|
e--8--8--8--8-4-4-6-6--8--8--8--8-6-6-6-6-|

do you know, do you know the way to the pot of gold?
e-------------------------------------|
b-------------------------------------|
g-------------------------------------|
d-10-10-10-10-6-6-6-6-8-8-8-8-8-8-8-8-|
a-10-10-10-10-6-6-6-6-8-8-8-8-8-8-8-8-|
e--8--8--8--8-4-4-4-4-6-6-6-6-6-6-6-6-|

how’ld you know, how’ld you know that she’s worth waiting for
e-------------------------------------|
b-------------------------------------|
g-------------------------------------|
d-10-10-10-10-6-6-6-6-8-8-8-8-8-8-8-8-|
a-10-10-10-10-6-6-6-6-8-8-8-8-8-8-8-8-|
e--8--8--8--8-4-4-4-4-6-6-6-6-6-6-6-6-|

now do you see how it will be do you know do you know do you know
e-------------------------------------|
b-------------------------------------|
g-------------------------------------|
d-10-10-10-10-6-6-6-6-8-8-8-8-8-8-8-8-|
a-10-10-10-10-6-6-6-6-8-8-8-8-8-8-8-8-|
e--8--8--8--8-4-4-4-4-6-6-6-6-6-6-6-6-|

e----------------------------------|
b----------------------------------|
g-8-8-8-8----------8-8-8-8---------|
d-8-8-8-8-6-6-8-8--8-8-8-8-6-6-8-8-|
a-6-6-6-6-6-6-8-8--6-6-6-6-6-6-8-8-|
e---------4-4-6-6----------4-4-6-6-|
Tap to rate this tab
# A B C D E F G H I J K L M N O P Q R S T U V W X Y Z