Guitaretab - guitar tabs
Song name
# A B C D E F G H I J K L M N O P Q R S T U V W X Y Z

Hilera - Pass The Walls tab

intro-
e|--7-7---------9--9---------------------------|
b|--7-7---------10-10--------------------------|
g|--7-7--hold---11-11--------------------------|
d|--9-9---------11-11--------------------------|2x
a|--9-9---------9--9---------------------------|
E|--7-7----------------------------------------|


verse: Bm F#m 4X
Drain the light out on me
e|--7-7---------9--9---------------------------|
b|--7-7---------10-10--------------------------|
g|--7-7--hold---11-11----hold------------------|
d|--9-9---------11-11--------------------------|2x
a|--9-9---------9--9---------------------------|
E|--7-7----------------------------------------|
Walking through this evening

e|--7-7---------9--9---------------------------|
b|--7-7---------10-10--------------------------|
g|--7-7--hold---11-11--------------------------|
d|--9-9---------11-11-----hold-----------------|2x
a|--9-9---------9--9---------------------------|
E|--7-7----------------------------------------|


cho: Em Bm Em F#m 2X
e|--9999999--77777777--9999999--1010101010------------------|
b|--10101010-77777777--10101010-1111111111------------------|
g|--1111111--77777777--1111111--1212121212------------------|
d|--1111111--99999999--1111111--1212121212------------------|
a|--9999999--99999999--9999999--1010101010------------------|
E|-----------77777777---------------------------------------|



ADLIB
[ Tab from: http://www.guitaretab.com/h/hilera/82758.html ]
e|--xxx77-xxx77--|------xxx9--9---xxx9--9------------------------|
b|--xxx77-xxx77--|------xxx10-10--xxx10-10-----------------------|
g|--xxx77-xxx77--|------xxx11-11--xxx11-11-----------------------|
d|--xxx99-xxx99--|------xxx11-11--xxx11-11-----------------------|2x
a|--xxx99-xxx99--|------xxx9--9---xxx9--9------------------------|
E|--xxx77-xxx77--|-----------------------------------------------|
solo 2x
e|-----14-------14----14----------------------------------------------------|
b|-------15-------15-----15-------------------------------------------------|
g|----------16------16------16-16--14-14-12-12------------------------------|
d|--------------------------------------------------------------------------|
a|--------------------------------------------------------------------------|
E|--------------------------------------------------------------------------|


e|-----14-------14----------------------------------------------------------|
b|-------15-------15--------------------------------------------------------|
g|----------16------16---11-11--12-12---14--14--12-12-----------------------|
d|--------------------------------------------------------------------------|
a|--------------------------------------------------------------------------|
E|--------------------------------------------------------------------------|



repeat verse and chorus-


Bm F#m ----
From here 
outro..
e|--7-7---------9--9---------------------------|
b|--7-7---------10-10--------------------------|
g|--7-7--hold---11-11--------------------------|
d|--9-9---------11-11--------------------------|2x
a|--9-9---------9--9---------------------------|
E|--7-7----------------------------------------|
Related for Pass The Walls tab
Advertisement will be closed in 10 seconds