Guitaretab - guitar tabs
Song name
# A B C D E F G H I J K L M N O P Q R S T U V W X Y Z

Hilera - Lies In My Head tab

intro
e-------------------------------------------------------|
b-------------------------------------------------------|
g-------------------------------------------------------|
d-------0------0------0---------------------------------|
a--2---------2---2--------------------------------------|
E-----0---0---------0-----------------------------------|

guitar1
e---------------------------------------------------------|
b---7-7---------------------------------------------------|
g------9-9-9---6-6-6-6-----7-7----------------------------|
d-----------------------------9-9-9-7-7-7-----------------|2x
a---------------------------------------------------------|
E---------------------------------------------------------|
guitar2 at the 3rd tym
e------------------------------------------------|
b------------------------------------------------|
g--44444444444-----------------------------------|
d--44444444444-5555555555------------------------|
a--22222222222-55555555555-----------------------|
E--------------33333333333-----------------------|

VERSE- Bm G


Tonight donít let me fall asleep
e--------------------------------------------------|x
b--------------------------------------------------|x
g--44444444444-------------------------------------|x
d--44444444444-5555555555--------------------------|x
a--22222222222-55555555555-------------------------|x
E--------------33333333333-------------------------|x
If i do, please wake me up
e--------------------------------------------------|x
b--------------------------------------------------|x
g--44444444444-------------------------------------|x
d--44444444444-5555555555--------------------------|x
a--22222222222-55555555555-------------------------|x
E--------------33333333333-------------------------|x

Cos it comes like a thief in the night
e--------------------------------------------------|x
b--------------------------------------------------|x
g--44444444444-------------------------------------|x
d--44444444444-5555555555--------------------------|x
a--22222222222-55555555555-------------------------|x
E--------------33333333333-------------------------|x
You never know
e--------------------------------------------------|x
b--------------------------------------------------|x
g--44444444444-------------------------------------|x
d--44444444444-5555555555--------------------------|x
a--22222222222-55555555555-------------------------|x
E--------------33333333333-------------------------|x

 INTRO
guitar1
e---------------------------------------------------------|
b---7-7---------------------------------------------------|
g------9-9-9---6-6-6-6-----7-7----------------------------|
d-----------------------------9-9-9-7-7-7-----------------|2x
a---------------------------------------------------------|
E---------------------------------------------------------|
g2
e------------------------------------------------|
b------------------------------------------------|
g--44444444444-----------------------------------|
d--44444444444-55555555555-----------------------|
a--22222222222-55555555555-----------------------|
E--------------33333333333-----------------------|

repeat verse
Tonight donít let me fall apart
If i do, please pick me up
Cos it comes like a thief in the night
You never know
[ Tab from: http://www.guitaretab.com/h/hilera/83317.html ]
INTERLUDE-D G D A D F#m D A
e--------------------------------------------------------|
b--------------------------------------------------------|
g----------121212121212----------141414141414------------|
d-12-12-12-121212121212-12-12-12-141414141414------------|
a-12-12-12-101010101010-12-12-12-121212121212------------|
E-10-10-10--------------10-10-10-------------------------|

e--------------------------------------------|
b--------------------------------------------|
g----------111111111-----------141414141414--|
d-12-12-12-111111111--12-12-12-141414141414--|
a-12-12-12-99999999---12-12-12-121212121212--|
E-10-10-10------------10-10-10---------------|

CHORUS- D G Em G
Cos tonight iíll think about the words you said
Tonight iíll think about the lies in my head

e------------------------------------------------|
b------------------------------------------------|
g--77777777777-----------------------------------|
d--77777777777-55555555555--2222222222--55555555-|2x
a--55555555555-55555555555--2222222222--55555555-|
E--------------33333333333--0000000000--33333333-|

VERSE 2 repeat verse

Tonight donít even bother me
Cos i wonít even be here
So tonight just let me go
And think until my fingers bleed

solo
bass
e-------------------------------------------------------|
b-------------------------------------------------------|
g-------------------------------------------------------|
d-------0------0------0---------------------------------|
a--2---------2---2--------------------------------------|
E-----0---0---------0-----------------------------------|

guitar1
e---------------------------------------------------------|
b---7-7---------------------------------------------------|
g------9-9-9---6-6-6-6-----7-7----------------------------|
d-----------------------------9-9-9-7-7-7-----------------|2x
a---------------------------------------------------------|
E---------------------------------------------------------|

e-------------------------------------------------------|
b--7-7-7-7--8-8-8-8--10-10------------------------------|
g--------------------------7-7-7-7-7--9-9-9-------------|
d-------------------------------------------------------|
a-------------------------------------------------------|
E-------------------------------------------------------|

e-------------------------------------------------------|
b--7-7--------------------------------------------------|
g------9-9-9---6---7-7----------------------------------|
d------------------------9-9-9---7-7--9-----------------|
a-------------------------------------------------------|
E-------------------------------------------------------|

THEN - D G D A D F#m D A
e--------------------------------------------------------|
b--------------------------------------------------------|
g----------121212121212----------141414141414------------|
d-12-12-12-121212121212-12-12-12-141414141414------------|
a-12-12-12-101010101010-12-12-12-121212121212------------|
E-10-10-10--------------10-10-10-------------------------|

e--------------------------------------------|
b--------------------------------------------|
g----------111111111-----------141414141414--|
d-12-12-12-111111111--12-12-12-141414141414--|
a-12-12-12-99999999---12-12-12-121212121212--|
E-10-10-10------------10-10-10---------------|


CHORUS2 D G Em G
Tonight iíll think about the words you said
Tonight iíll think about the lies in my head

The lies in my ...D  BY  rakiztahz_03@yahoo.com
Related for Lies In My Head tab