Guitaretab - guitar tabs
Song name
# A B C D E F G H I J K L M N O P Q R S T U V W X Y Z

Hilera - Up In The Heavens tab

by rakitahz_03@yahoo.com   add nyo naman sa friendster..

verse-C#5 D5 E5 F#5
   PM              PM            PM            PM
e--------------------------------------------------------------------|
b--------------------------------------------------------------------|
g--66x-8x8x8x8x8x8-77x-7x7x7x7x7-99x-9x9x9x9x-1111x-11x11x11x11x11x--|
d--66x-8x8x8x8x8x8-77x-7x7x7x7x7-99x-9x9x9x9x-1111x-11x11x11x11x11x--|
a--44x-4x4x4x4x4x4-55x-5x5x5x5x5-77x-7x7x7x7x-9-9x---9x-9x-9x-9x-9x--|
E--------------------------------------------------------------------|
If i could see the light then iím not so blind
I will realize
That i have become one of them
I will realize

Ref-D5 E5 F#5
                             x  x  x  x
E--------------------------------------------------|
B--------------------------------------------------|
G---7~/9~/11~---7~/9~/11~---11-11-11-11------------|
D---7~/9~/11~---7~/9~/11~---11-11-11-11------------|4x
A---5~/7~/9~----5~/7~/9------9-9---9--9------------|
E--------------------------------------------------|
[ Tab from: http://www.guitaretab.com/h/hilera/84183.html ]
Away from reality
I indulge myself, indulge myself
To live, to try to fight
To gain

Cho-F#5 A B

Fly up the heavens so high
E------------------------------------|
B------------------------------------|
G------------------------------------|
D--4~----7~----9~--------------------|
A--4~----7~----9~--------------------|
E--2~----5~----7~--------------------|
Fly up the heavens so high
E------------------------------------|
B------------------------------------|
G------------------------------------|
D--4~----7~----9~--------------------|
A--4~----7~----9~--------------------|
E--2~----5~----7~--------------------|

interlude
E------------------------------------------------------------------------|
B------------------------------------------------------------------------|
G-----------4-4h6-4-----------6-6h7-6---------------6-7/9-7-6--9/11-11---|
D-4-4-4-6-7---------7-666-7-9--------6--6-6-6-7-6-9----------------------|
A------------------------------------------------------------------------|
E------------------------------------------------------------------------|

repeat verse ref and chorus
Related for Up In The Heavens tab