Guitaretab - guitar tabs
Song name
# A B C D E F G H I J K L M N O P Q R S T U V W X Y Z
Home / H / Hilera / Dehado tab

Hilera - Dehado tab

By-Francis
Location - Carmelite, Lucena City
Cp #- 09109712432
E-add- f_sario@yahoo.com  (friendster)add me!
School- Sacred Heart College

Intro-
e|----6----4------6--------|    |--4~----|
b|--4----4-----4----4------|    |--------|
g|-------------------------|7x  |--------|
D|-------------------------|    |--------|
A|-------------------------|    |--------|
E|-------------------------|    |--------|

Verse1
    
e|------4--|---------|-----4--|---------|
b|---------|---------|--------|---------|
g|---------|------3--|--------|------3--|
D|---------|----5----|--------|----5----|
A|----6----|--3------|---6----|--3------|
E|--4------|---------|-4------|---------|


e|--------|--------|--------|--------|
B|--------|------6-|-----8~-|-9~-----|
G|------6-|--------|-----8~-|-8~-----|
D|----6---|--------|---8----|-8~-----|
A|--4-----|---8----|-6------|--------|
E|--------|-6------|--------|--------|

Refrain-
    pm         pm            pm      pm
e|----------------------|----------------------|
B|----------------------|----------------------|
G|-----------55555555---|-----------55555555---|
D|-33333333--55555555---|-33333333--55555555---|
A|-33333333--33333333---|-33333333--33333333---|
E|-11111111-------------|-11111111-------------|

     pm         pm            pm      pm
e|----------------------|----------------------|
B|----------------------|----------------------|
G|-33333333--66666666---|-33333333--66666666---|
D|-33333333--66666666---|-33333333--66666666---|
A|-11111111--44444444---|-11111111--44444444---|
E|----------------------|----------------------|

     pm         pm            pm      pm
e|----------------------|----------------------|
B|----------------------|----------------------|
G|-----------55555555---|-----------55555555---|
D|-33333333--55555555---|-33333333--55555555---|
A|-33333333--33333333---|-33333333--33333333---|
E|-11111111-------------|-11111111-------------|

    pm         pm            
e|----------------------|-----------------------------------|
B|----------------------|------------------------999999-----|
G|-33333333--66666666---|-333333--6666666-888888-888888-----|
D|-33333333--66666666---|-333333--6666666-888888-888888-----|
A|-11111111--44444444---|-111111--4444444-666666-666666-----|
E|----------------------|-----------------------------------|

Chorus1
e|-------------------------|   |-------------------|
B|-------------------------|   |--2222222--3333333-|
G|------------55555555555--|   |--3333333--6666666-|
D|-6666666666-55555555555--|3X |--3333333--6666666-|
A|-6666666666-33333333333--|   |--1111111--4444444-|
E|-4444444444--------------|   |-------------------|



Interlude1


Guitar1
e|----------33-444---666-----|
B|-444--666--------------44--|
G|---------------------------|4X
D|---------------------------|
A|---------------------------|
E|---------------------------|
[ Tab from: http://www.guitaretab.com/h/hilera/84777.html ]
ExtraGuitaR
e|----------------------|----------------------|
B|----------------------|----------------------|
G|-----------55555555---|-----------55555555---|
D|-33333333--55555555---|-33333333--55555555---|
A|-33333333--33333333---|-33333333--33333333---|
E|-11111111-------------|-11111111-------------|


e|----------------------|----------------------|
B|----------------------|----------------------|
G|-33333333--66666666---|-33333333--66666666---|
D|-33333333--66666666---|-33333333--66666666---|
A|-11111111--44444444---|-11111111--44444444---|
E|----------------------|----------------------|


Verse2
   
e|----------------------------------------------------------------------|
B|------------------------------------------------------------99999999--| 
G|-----------5-5-5-----------5-5-5---3-3-3---6-6-6---88888888-88888888--|2x
D|-66-6-6-6--5-5-5---6-6-6---5-5-5---3-3-3---6-6-6---88888888-88888888--|
A|-66-6-6-6--3-3-3---6-6-6---3-3-3---1-1-1---4-4-4---66666666-66666666--|
E|-44-4-4-4----------4-4-4----------------------------------------------|   

Chorus2
e|-------------------------|   |-------------------|
B|-------------------------|   |--2222222--3333333-|
G|------------55555555555--|   |--3333333--6666666-|
D|-6666666666-55555555555--|3X |--3333333--6666666-|
A|-6666666666-33333333333--|   |--1111111--4444444-|
E|-4444444444--------------|   |-------------------|


Chorus3
   pm  pm  pm   pm  pm pm     pm
e|---------------------------------------|         |-------------------|
B|------------------------4------4-------|         |--2222222--3333333-|
G|--------------55-555-55-5---55-5-------|         |--3333333--6666666-|
D|-66-666-666-6-55-555-55-5---55-5-------|3X       |--3333333--6666666-|
A|-66-666-666-6-33-333-33-----33---------|         |--1111111--4444444-|
E|-44-444-444-4--------------------------|         |-------------------|


Outro-

Guitar1
e|----------33-444---666-----|
B|-444--666--------------44--|
G|---------------------------|8x
D|---------------------------|
A|---------------------------|
E|---------------------------|

ExtraGuitaR 2x
e|----------------------|----------------------|
B|----------------------|----------------------|
G|-----------55555555---|-----------55555555---|
D|-33333333--55555555---|-33333333--55555555---|
A|-33333333--33333333---|-33333333--33333333---|
E|-11111111-------------|-11111111-------------|


e|----------------------|----------------------|
B|----------------------|----------------------|
G|-33333333--66666666---|-33333333--66666666---|
D|-33333333--66666666---|-33333333--66666666---|
A|-11111111--44444444---|-11111111--44444444---|
E|----------------------|----------------------|


Guitar1
Outro2
e|----6----4------6--------|----6----4------6--------|    
b|--4----4-----4----4------|--4----4-----4----4------|     
g|-------------------------|-------------------------|Do until end
D|-------------------------|-------------------------|    
A|-------------------------|-------------------------|    
E|-------------------------|-------------------------|    



Related for Dehado tab
Advertisement will be closed in 10 seconds