Song name
# A B C D E F G H I J K L M N O P Q R S T U V W X Y Z

Hilera - Pilit tab

Song:Pilit
Album:Hilera
Artist:Hilera
Date Tabbed:May,2006
Guitar Tabber:Ryan Manongdo/17/m/Montalban Rizal
              no_falter0x@yahoo.com(Friendster&YM)
              
Notes:This tab is best for Guitar.1

For your questions or suggestions,just post in friendster comment,PM or mail me.

Gtr.Legends:
~ - let it ring
. - palm muting
* - artificial harmonic

Gtr.Tuning:Standard(Normal)

Intro:
e|----------------|
B|-3~-------------|
G|-4~---4~---5~---| 4x
D|------5~---5~---|
A|----------------|
E|----------------|

Verse 1:sayo,ako'y...
e|-3333-3333---|
B|-3333-3333---|
G|-0000-0000---| 4x
D|-2222-0000---|
A|-3333-2222---|
E|------3333---|

Chorus:Pinipilit kong...
Play Verse

Pre-Verse 2:
Gtr.1
e|-00000-22222-33333--3~---|
B|-11111-33333-33333--3~---|
G|-22222-44444-55555--0~---|
D|-22222-44444-55555--0~---|
A|-00000-22222-33333--2~---|
E|--------------------3~---|

Verse 2:
Play Verse 1

Repeat Chorus

Before Bridge:
e|------------------------|
B|------------------------|
G|------------------------|
D|-77777-99999-55555-5~---|
A|-77777-99999-33333-5~---|
E|-55555-77777-------3~---|
   ..... ..... .....

Bridge:
Gtr.1:Play Verse

Gtr.2
e|-------------------------------------------------------------------------------------|
B|-----8-----8------------------------8---8----------7---7----------8---8~---7---7-----|
G|-7*----7-7------7*---7---7------7*----7---7----7*----5---5----7*----7--------5---5---|
D|----------------------5----5---------------------------------------------------------|
A|-------------------------------------------------------------------------------------|
E|-------------------------------------------------------------------------------------|

Ending of Bridge:
e|---------------------------|
B|---------------------------|
G|---------------------------|
D|-77777-99999-55555-77777---|
A|-77777-99999-33333-55555---|
E|-55555-77777---------------|
   ..... ..... .....

Repeat Chorus:

Outro:
e|------------------------|
B|------------------------|
G|------------------------|
D|-77777-99999-55555-5~---|
A|-77777-99999-33333-5~---|
E|-55555-77777-------3~---|
   ..... ..... .....


End...

Pilit Lyrics:

Verse
Sa yo ako’y walang ligtas
Di makawala sa isip ko
Sa yo baliw ang utak ko
Buong sistema ko
Sa yo

Chorus
Pinipilit kong magpakasaya
Pinipilit kong patawanin ka
Pinipilit kong magpakaiba

Tap to rate this tab
 
# A B C D E F G H I J K L M N O P Q R S T U V W X Y Z