Guitaretab - guitar tabs
Song name
# A B C D E F G H I J K L M N O P Q R S T U V W X Y Z

Hillman Chris - Blue Morning tab

Band: Greeley Estates
Song: Blue Morning
Album: Go West Young Man, Let The Evil Go East
Tuning: C

Intro: 2x
                                                                 
D|------------------------------------------------------------------------|
A|------------------------------------------------------------------------|
F|------------------------------------------------------------------------|
C|-------------------------------------------7h8p7p0-----7h8p7p0----------|
G|-00000--0000--000----00000--0000--000--5h7---------7p0---------5p0--5h7-|
C|-00000--0000--000----00000--0000--000-----------------------------------|
   .....  ....  ...    .....  ....  ...

D|-------------------------------------------|
A|-------------------------------------------|
F|-------------------------------------------|
C|------7h8p7p0------7h8p7p0-----------------|
G|-5h7----------7p0-----------5p0--5h7-------|
C|-------------------------------------------|


Verse:
                                                 1.             2.
D|--------------------------|----------------------|--------------|
A|--------------------------|----------------------|--------------|
F|-----------14--10--12--9--|--------9---------9---|--10--12--9---|
C|------------x---x---x--x--|--------x---------x---|---x---x--x---|
G|-0-----0---12---8--10--7--|--------7--00000--7---|---8--10--7---|
C|-0000000------------------|-0000-0----00000------|--------------|

[ Tab from: http://www.guitaretab.com/h/hillman-chris/8266.html ]
D|-------------------------------------| 1.
A|-------------------------------------| 2.
F|-------------------------------------|
C|-------------------------------------|
G|-0-----0---88888-55555-77777-44444---|
C|-0000000-----------------------------|


Intro
Verse


D|----------------------------------------|
A|----------------------------------------|
F|--10-12--9--------------10--12--9-------|
C|--x---x--x---------------x---x--x-------|
G|--8--10--7---0-----0~----8--10--7-------|
C|-------------0000000~-------------------|


Bridge:
                       3x
D|-----------------------|-------------|----------|------------------------|
A|-----------------------|-------------|----------|------------------------|
F|-----------------------|--10--12--9--|----------|--------10--12--9--10/9~|
C|-----------------------|---x---x--x--|----------|---------x---x--x---x-x-|
G|--0-----0~---00~--00~--|---8--10--7--|-00----0~-|-00------8--10--7---8-7~|
C|--0000000~---00~--00~--|-------------|-0000000~-|-0000000----------------|


D|----------------|
A|----------------|  listen to song for how many times you pick these notes.
F|----------------|
C|----------------|
G|----------------|
C|--3-2/10-9------|


                 8x
D|-----------------|
A|-----------------|
F|-----------------|
C|-----------------|
G|-0000---0000-----|
C|-0000---0000-----|


D|------------------------------|
A|------------------------------|  listen for rythem.
F|------------------------------|
C|------------------------------|
G|--8-------9---------0~--------|
C|--8-------9---------0~--------|

hope you enjoyed it.
:]




Related for Blue Morning tab
Blue Morning chords by Hillman Chris