Song name
# A B C D E F G H I J K L M N O P Q R S T U V W X Y Z

Hillsong Kids - Im Not Ashamed tab

-------------------------------------------------------------------------------
			     Hillsong Kids - I'm not ashamed
-------------------------------------------------------------------------------
Tabbed by: Matt J
Email: spyker8@hotmail.com

Tuning: Standard

This is for the Hillsong Kids version. I saw nobody submitted it and I decided to learn
by ear so, here it is.

Intro (Pick close to the bridge of the guitar for more of that effect)

e|---------------------------------------------------------------------------|
B|---------------------------------------------------------------------------|
G|---------------------------------------------------------------------------|
D|---------------------------------------------------------------------------|
A|--------2-3-3-0-0-------0-2-2-----------2-3-3-0-0-0-0-3-3------------------|
E|-0-0-0------------0-0-0-------3-3-0-0-0-------------------3-3-2-2----------|

Verse 1

e|---------------------------------------------------------------------------|
B|---------------------------------------------------------------------------|
G|-9-------------------------------------------------------------------------|
D|-9-------------------------------------------------------------------------|
A|-7-------------------------------------------------------------------------|
E|-0-------------------------------------------------------------------------|

Pre-Chorus

e|---------------------------------------------------------------------------|
B|---------------------------------------------------------------------------|
G|-5-----7-------------------------------------------------------------------|
D|-5--5--7-------------------------------------------------------------------|
A|-3--5--5-------------------------------------------------------------------|
E|----3----------------------------------------------------------------------|

x2

Chorus

e|---------------------------------------------------------------------------------------|
B|---------------------------------------------------------------------------------------|
G|----7-----5---9-7----------------------------------------------------------------------|
D|-5--7--2--5---9-7-5/10-----------------------------------------------------------------|
A|-5--5--2--3---7-5-5/10-----------------------------------------------------------------|
E|-3-----0----------3/8------------------------------------------------------------------|

Strum 5 times each, in rythm

After "I live in the risen sun" after 1st chorus, play this. It plays somewhere else to 
just forget

e|---------------------------------------------------------------------------------|
B|--7---7---7---7------------------------------------------------------------------|
G|----9---9---9--9-----------------------------------------------------------------|
D|---------------------------------------------------------------------------------|
A|---------------------------------------------------------------------------------|
E|---------------------------------------------------------------------------------|


| /  slide up
| \  slide down
| h  hammer-on
| p  pull-off
| ~  vibrato
| +  harmonic
| x  Mute note
===============================================================================
Tap to rate this tab
 
# A B C D E F G H I J K L M N O P Q R S T U V W X Y Z