Song name
# A B C D E F G H I J K L M N O P Q R S T U V W X Y Z

Hillsong Live - Grace Abounds chords

Highlighted       Show chord diagrams
“Grace Abounds”                         Ben Fielding/Dean Ussher


Intro:  Dmaj7   F#m   A   E


Verse 1:
Dmaj7                               F#m                       A                E
    You lay aside Your throne      and to this world You have come
Dmaj7                                F#m                       A                     E
    You offered up Your life,   the debt You paid, it was not Yours


Chorus:
      Bm           F#m    E                  A          C#m7      D
Your grace abounds to me,       Your grace abounds to me
Bm  F#m      A                 E          D    E
 Jesus,  in You I find all that I need


Verse 2:
Dmaj7                              F#m                     A                      E
      A gift I could not earn     Your open arms,   are undeserved      
Dmaj7                           F#m               A                      E
      Enabled by Your grace       Now to live,  is Christ alone


Bridge: (x3)
D                      E                      F#m                                  E/G#
   All powerful,   All glorious,   there’s nothing like the name of Jesus
D                      E                      F#m                                    E/G#
   All powerful,   All glorious,    there’s nothing like Your name




Intro/Verse Tab:

    Dmaj7
E--------------------------------------------|
B-----14---14---14---14---14---14---14---14--|
G--11---11---11---11---11---11---11---11-----|
D--------------------------------------------|
A--------------------------------------------|
E--------------------------------------------|

    F#m
E--------------------------------------------|
B-----12---12---12---12---12---12---12---12--|
G--14---14---14---14---14---14---14---14-----|
D--------------------------------------------|
A--------------------------------------------|
E--------------------------------------------|

    A
E--------------------------------------------|
B-----14---14---14---14---14---14---14---14--|
G--------------------------------------------|
D--14---14---14---14---14---14---14---14-----|
A--------------------------------------------|
E--------------------------------------------|

    E
E--------------------------------------------|
B-----12---12---12---12---12---12---12---12--|
G--13---13---13---13---13---13---13---13-----|
D--------------------------------------------|
A--------------------------------------------|
E--------------------------------------------|
Tap to rate this tab
# A B C D E F G H I J K L M N O P Q R S T U V W X Y Z