Song name
# A B C D E F G H I J K L M N O P Q R S T U V W X Y Z

Hillsong Live - With Us tab

Intro Riff

E----------14-14----|
B-------------------|
G-16-14-16-------14-|
D-------------------|
A-------------------|
E-------------------|

E----------15-15-14-|
B-------------------|
G-16-14-16----------|
D-------------------|
A-------------------|
E-------------------|

E----------14-14------12\-|
B---------------------12\-|
G-16-14-16-------14--b14\-|
D-------------------------|
A-------------------------|
E-------------------------|

Instrumental/Solo
Chords first, then tremlo picking solo

Beat count
3    1      2   2   4   4
Bm - A/C# - D - G - D - A

Tremlo picking
The notes are on rhythm with the chords
E--7t-9t-10t-15t-14t-17t--|
B-------------------------|
G-------------------------|
D-------------------------|
A-------------------------|
E-------------------------|
Tap to rate this tab
 
# A B C D E F G H I J K L M N O P Q R S T U V W X Y Z