Song name
# A B C D E F G H I J K L M N O P Q R S T U V W X Y Z

Hillsong Live - Anchor tab

  C#m
E---------------------------|
B-14-14-14----------15-15---|
G----------16-16-16---------|
D---------------------------|
A---------------------------|
E---------------------------|

  A
E----------------------------|
B----------------------------|
G----------------------------|
D-17-17-17-16-16-16----14-16-|
A-------------------17-------|
E----------------------------|

  E                       B
E-------------------------------------------------|
B-------------------------------------------------|
G-------------------------------------------------|
D-16-16-16-16-17-17-16-16-14-14-14-14-14-14-14-14-|
A-------------------------------------------------|
E-------------------------------------------------|

  C#m
E---------------------------|
B-14-14-14----------15-15---|
G----------16-16-16---------|
D---------------------------|
A---------------------------|
E---------------------------|

  A
E----------------------------|
B----------------------------|
G----------------------------|
D-17-17-17-16-16-16----14-16-|
A-------------------17-------|
E----------------------------|

  E                       B
E-------------------------------------------------|
B-------------------------14-14-14-14-14-14-14-14-|
G-------------------14-14-------------------------|
D-16-16-16-16-17-17-------------------------------|
A-------------------------------------------------|
E-------------------------------------------------|
Tap to rate this tab
# A B C D E F G H I J K L M N O P Q R S T U V W X Y Z