Song name
# A B C D E F G H I J K L M N O P Q R S T U V W X Y Z

Hillsong Live - You Never Fail tab

E----------------14-----------------|
B-------------17----14-----------14-|
G-14-h16-p14------------16-14-16----|
D-----------------------------------|
A-----------------------------------|
E-----------------------------------|

E----------------14-----------------|
B-------------17----14-----------14-|
G-----------------------16-14-16----|
D-----------------------------------|
A-----------------------------------|
E-----------------------------------|

E----------------14-----------------|
B-------------17----14-----------14-|
G-----------------------16-14-16----|
D-----------------------------------|
A-----------------------------------|
E-----------------------------------|

E----------------14--------------------------|
B-------------17----17------14---------17----|
G------------------------16----16---14----14-|
D--------------------------------------------|
A--------------------------------------------|
E--------------------------------------------|

You can end the solo however you want. I can't hear exactly what they're doing but 
knowing Nigel and Jad, they're probably doing a variation on the E chord.
Tap to rate this tab
# A B C D E F G H I J K L M N O P Q R S T U V W X Y Z