Song name
# A B C D E F G H I J K L M N O P Q R S T U V W X Y Z

Hillsong Live - Glorious Ruins tab

Someone was nice enough to play the album version on youtube. I figured half of this out 
before I came across his video. Well, almost. XD
Link http://www.youtube.com/watch?v=Q0pZ2ZRxhmU

Intro
e----------7----------7----------7----------|
B-9--9-7-9---9--9-7-9---9--9-7-9---9-7-5-7-5|
G-------------------------------------------|
D-------------------------------------------|
A-------------------------------------------|
E-------------------------------------------|

Chorus
e----------7----------7----------7----------|
B-9--9-7-9---9--9-7-9---9--9-7-9---9-7-5-7-9|
G-------------------------------------------|
D-------------------------------------------|
A-------------------------------------------|
E-------------------------------------------|

e----------7----------7----------7----------|
B-9--9-7-9---9--9-7-9---9--9-7-9---9-7-5-7-5|
G-------------------------------------------|
D-------------------------------------------|
A-------------------------------------------|
E-------------------------------------------|

Mid verse (eg right after ~You are with me)
e----------------------------|
B----------------------------|
G----------------------------|
D-11-11-11-11-11-11--------11|
A------------------9 11 13---|
E----------------------------|

 Prechorus/solo interlude
e-14-14-13-13------------|
B-------------13---------|
G----------------13-15-13|
D------------------------|
A------------------------|
E------------------------|

          Solo
e-14-11-9-------14----16-|
B---------12-11----14----|
G------------------------|
D------------------------|
A------------------------|
E------------------------|
(For the first 2 notes along with the 3rd and last notes the play each note 16 times. 
The rest, roughly 4 times each)Or you can let each note ring, up to you.

Well, I hope this helps. God bless and enjoy playing. =)
Tap to rate this tab
 
# A B C D E F G H I J K L M N O P Q R S T U V W X Y Z