Song name
# A B C D E F G H I J K L M N O P Q R S T U V W X Y Z

Hillsong Live - I Surrender tab

This solo is tabbed in the actual key of F like on the cd. Adjust accordingly...

The first instrumental break played during the Bridge is tremlo picking.
Nigel plays with some thick reverb and fast delay so he doesn't have to try to play so fast.
You can do the E string notes only if you're having trouble with trem picking two seperate strings.

E-18t-17t-15t---18t-17t-15t-13t-12t-|
B-----------------------------------|
G-15t-14t-12t---15t-14t-12t-10t-9t--|
D-----------------------------------|
A-----------------------------------|
E-----------------------------------|

Now for the guitar solo.

  Bb
E----10-13-12-10-------|
B-11-------------13-11-|
G----------------------|
D----------------------|
A----------------------|
E----------------------|

  F
E-------13-12-10-------|
B-10-13----------13-10-|
G----------------------|
D----------------------|
A----------------------|
E----------------------|

  C
E-------13-12-10-------------13-12-10-------|
B----13----------13-10----13----------13-10-|
G-12-------------------12-------------------|
D-------------------------------------------|
A-------------------------------------------|
E-------------------------------------------|

  Bb
E----10-13-12-10-------|
B-11-------------13-11-|
G----------------------|
D----------------------|
A----------------------|
E----------------------|

  Dm                   C
E-------13-12-10-------12t-13t-15--|t
B-10-13----------13-10-------------|
G----------------------------------|
D----------------------------------|
A----------------------------------|
E----------------------------------|

And then it goes back to the tremlo picking to finish the song.

Like a rushing wind....
E------18t-17t-15t---18t-17t-15t-13t-12t-|
B----------------------------------------|
G------15t-14t-12t---15t-14t-12t-10t-9t--|
D----------------------------------------|
A----------------------------------------|
E----------------------------------------|
Tap to rate this tab
 
# A B C D E F G H I J K L M N O P Q R S T U V W X Y Z