Song name
# A B C D E F G H I J K L M N O P Q R S T U V W X Y Z

Hillsong Live - Closer tab

There is no tab for this song on this site at all. So here are the verses, chorus, 
and the riff for this song. 

Verse:
C                    Am        F
There is no life without You
E|----------------------------------------------|
B|--8-----8-----8-----8-----8--6--6--5-6-5-6-5--|
G|----------------------------------------------|
D|----------------------------------------------|
A|----------------------------------------------|
E|----------------------------------------------|

C                    Am        F
You have all that we need
E|----------------------------------------------|
B|--8-----8-----8-----8-----8--6--6--5-6-5-6-5--|
G|----------------------------------------------|
D|----------------------------------------------|
A|----------------------------------------------|
E|----------------------------------------------|

    C                            Am       F
Where you are every fear is broken
E|--------------------------------8-8-7-7-------------|
B|--8-----8------8-----8------8-----------6-5-6-5-6-5-|
G|----------------------------------------------------|
D|----------------------------------------------------|
A|----------------------------------------------------|
E|----------------------------------------------------|

C                      Am      F
And the darkness must flee
E|---------------------------------------------|
B|--8-----8-----8-----8-----8--6--6--5-6-5-6-5-|
G|---------------------------------------------|
D|---------------------------------------------|
A|---------------------------------------------|
E|---------------------------------------------|


Chorus:
    C                                   Am                F
E|--8---8---10---10---8---8---10---10---8---8---10---10---8---8---10---10---|
B|----8---8----8----8---8---8----8----8---8----8---8---8----8---8----8----8-|
G|--------------------------------------------------------------------------|
D|--------------------------------------------------------------------------|
A|--------------------------------------------------------------------------|
E|--------------------------------------------------------------------------|


Riff:
   C
E|----------------------|
B|-20--20--17--17-------|
G|------------------19--|
D|----------------------|
A|----------------------|
E|----------------------|

   C
E|----------------------|
B|-------17----------17-|
G|-17-19----17-16-19----|
D|----------------------|
A|----------------------|
E|----------------------|

   Am              F
E|-----------------------------------------|
B|-----------------------------18-------18-|
G|-17--17--16--16-----------17-------17----|
D|-----------------15----15-------15-------|
A|-----------------------------------------|
E|-----------------------------------------|
Tap to rate this tab
# A B C D E F G H I J K L M N O P Q R S T U V W X Y Z