Song name
# A B C D E F G H I J K L M N O P Q R S T U V W X Y Z

Hillsong Live - To Be Like You tab

Artist: Hillsong Live
Album: Glorious Ruins
Song: To Be Like You

Tabbed by: Frenchboy/magicberu

Tuning: Standard (eBGDAE)


Key: C | Capo: 5



Intro and interludes:

e|---------------------------------------------------------------------------|
B|-8---\7---\5-------------------5--\3---/7----------------------------------|
G|------------------0----0-----------------------0---0-----------------------|
D|---------------------------------------------------------------------------| 
A|-7---\5---\3----3----3---------3--\2---/5----5---5-------------------------|
E|---------------------------------------------------------------------------|

e|---------------------------------------------------------------------------|
B|-/8---\7---\5-------------------5--\3---/7---------------------------------|
G|-------------------0----0-----------------------0---0----------------------|
D|---------------------------------------------------------------------------| 
A|-/7---\5---\3----3----3---------3--\2---/5----5---5------------------------|
E|---------------------------------------------------------------------------|



Verse 1:

e|---------------------------------------------------------------------------|
B|-8---\7---\5-------------------5--\3---/7----------------------------------|
G|------------------0----0-----------------------0---0-----------------------|
D|---------------------------------------------------------------------------| 
A|-7---\5---\3----3----3---------3--\2---/5----5---5-------------------------|
E|---------------------------------------------------------------------------|

e|---------------------------------------------------------------------------|
B|-/8---\7---\5-------------------5--\3---/7---------------------------------|
G|-------------------0----0-----------------------0---0----------------------|
D|---------------------------------------------------------------------------| 
A|-/7---\5---\3----3----3---------3--\2---/5----5---5------------------------|
E|---------------------------------------------------------------------------|

e|---------------------------------------------------------------------------|
B|-8---\7---\5-------------------5--\3---/7----------------------------------|
G|------------------0----0-----------------------0---0-----------------------|
D|---------------------------------------------------------------------------| 
A|-7---\5---\3----3----3---------3--\2---/5----5---5-------------------------|
E|---------------------------------------------------------------------------|

e|---------------------------------------------------------------------------|
B|-/8---\7---\5-------------------5--\3---/7---------------------------------|
G|-------------------0----0-----------------------0---0----------------------|
D|---------------------------------------------------------------------------| 
A|-/7---\5---\3----3----3---------3--\2---/5----5---5------------------------|
E|---------------------------------------------------------------------------|



Verse 2:

e|---------------------------------------------------------------------------|
B|-/8---\7---\5-------------------5--\3---/7---------------------------------|
G|-------------------0----0-----------------------0---0----------------------|
D|---------------------------------------------------------------------------| 
A|-/7---\5---\3----3----3---------3--\2---/5----5---5------------------------|
E|---------------------------------------------------------------------------|

e|---------------------------------------------------------------------------|
B|-/8---\7---\5-------------------5--\3---/7----------7----------------------|
G|-------------------0----0-----------------------0--------------------------|
D|---------------------------------------------------------------------------| 
A|-/7---\5---\3----3----3---------3--\2---/5----5---5------------------------|
E|---------------------------------------------------------------------------|

e|---------------------------------------------------------------------------|
B|-/8---\7---\5-------------------5--\3---/7---------------------------------|
G|-------------------0----0-----------------------0---0----------------------|
D|---------------------------------------------------------------------------| 
A|-/7---\5---\3----3----3---------3--\2---/5----5---5------------------------|
E|---------------------------------------------------------------------------|

e|---------------------------------------2-----------------------------------|
B|-/8---\7---\5-------------------5--\3--------------------------------------|
G|-------------------0----0--------------------------------------------------|
D|---------------------------------------0-----------------------------------| 
A|-/7---\5---\3----3----3---------3--\2--------------------------------------|
E|---------------------------------------------------------------------------|



Chorus:

e|---------------------------------------------------------------------------|
B|-3-------3-------3-------3-------/7-------7-------7-------7----------------|
G|-----0-------0-------0------0---------0-------0-------0------0-------------|
D|---------------------------------------------------------------------------|
A|---------------------------------/5-5---5---5---5---5---5------------------|
E|-3-3---3---3---3---3---3---------------------------------------------------|

e|---------------------------------------------------------------------------|
B|-/8-------8-------8-------8-------/5-------5-------5-------5---------------|
G|------0-------0-------0------0---------0-------0-------0------0------------|
D|---------------------------------------------------------------------------|
A|-/7-7---7---7---7---7---7---------/3-3---3---3---3---3---3-----------------|
E|---------------------------------------------------------------------------|



Verse 3:

e|---------------------------------------------------------------------------|
B|-/8---\7---\5-------------------5--\3---/7---------------------------------|
G|-------------------0----0-----------------------0---0----------------------|
D|---------------------------------------------------------------------------| 
A|-/7---\5---\3----3----3---------3--\2---/5----5---5------------------------|
E|---------------------------------------------------------------------------|

e|---------------------------------------------------------------------------|
B|-/8---\7---\5-------------------5--\3---/7---------------------------------|
G|-------------------0----0-----------------------0---0----------------------|
D|---------------------------------------------------------------------------| 
A|-/7---\5---\3----3----3---------3--\2---/5----5---5------------------------|
E|---------------------------------------------------------------------------|

e|---------------------------------------------------------------------------|
B|-/8---\7---\5-------------------5--\3---/7---------------------------------|
G|-------------------0----0-----------------------0---0----------------------|
D|---------------------------------------------------------------------------| 
A|-/7---\5---\3----3----3---------3--\2---/5----5---5------------------------|
E|---------------------------------------------------------------------------|

e|---------------------------------------------------------------------------|
B|-/8---\7---\5-------------------5--\3---/7-------7-------7-------7---------|
G|-------------------0----0--------------------0-------0-------0------0------|
D|---------------------------------------------------------------------------| 
A|-/7---\5---\3----3----3---------3--\2---/5-5---5---5---5---5---5-----------|
E|---------------------------------------------------------------------------|


Chorus 2:

e|---------------------------------------------------------------------------|
B|-3-------3-------3-------3-------/7-------7-------7-------7----------------|
G|-----0-------0-------0------0---------0-------0-------0------0-------------|
D|---------------------------------------------------------------------------|
A|---------------------------------/5-5---5---5---5---5---5------------------|
E|-3-3---3---3---3---3---3---------------------------------------------------|

e|---------------------------------------------------------------------------|
B|-/8-------8-------8-------8-------/5-------5-------5-------5---------------|
G|------0-------0-------0------0---------0-------0-------0------0------------|
D|---------------------------------------------------------------------------|
A|-/7-7---7---7---7---7---7---------/3-3---3---3---3---3---3-----------------|
E|---------------------------------------------------------------------------|


G           D
 All I want, all I need
Em            C
  More of You, less of me
G               D
 Take this life, Lord it's Yours
Em              C
  Have my heart, have it all



Bridge:

e|---------------------------------------------------------------------------|
B|-3----------------------/5----------/7---------------7------/8-------------|
G|----------0------0----------------------------0----------------------------|
D|---------------------------------------------------------------------------|
A|-2----2------2------2---/3----------/5----5------5------5---/7-------------|
E|---------------------------------------------------------------------------|

e|---------------------------------------------------------------------------|
B|\3----------------------/5----------/7---------------7------/8-------------|
G|----------0------0----------------------------0----------------------------|
D|---------------------------------------------------------------------------|
A|\2----2------2------2---/3----------/5----5------5------5---/7-------------|
E|---------------------------------------------------------------------------|

e|---------------------------------------------------------------------------|
B|-3----------------------/5----------/7---------------7------/8-------------|
G|----------0------0----------------------------0----------------------------|
D|---------------------------------------------------------------------------|
A|-2----2------2------2---/3----------/5----5------5------5---/7-------------|
E|---------------------------------------------------------------------------|

e|------------------------------------------------------------\3-------------|
B|\3----------------------/5----------/7---------------7---------------------|
G|----------0------0----------------------------0----------------------------|
D|---------------------------------------------------------------------------|
A|\2----2------2------2---/3----------/5----5------5------5------------------|
E|------------------------------------------------------------\3-------------|



G/B  C    D    Em
Je - sus, Je - sus
G/B   C          D       Em 
All I want is to be like You      (x2) 
G/B  C    D    Em
Je - sus, Je - sus
G/B   C          D       G 
All I want is to be like You






************************************

| /   slide up
| \   slide down


************************************
Tap to rate this tab
# A B C D E F G H I J K L M N O P Q R S T U V W X Y Z