Song name
# A B C D E F G H I J K L M N O P Q R S T U V W X Y Z

Hillsong Live - This Is Our God tab

-------------------------------------------------------------------------------
                             This Is Our God - Hillsong Live
-------------------------------------------------------------------------------

Tabbed by: Mikeswimby

Tuning: Standard


  Intro & Verses

e|---------------------------------------------------------------------------|
B|---------------------------------------------------------------------------|
G|---------------------------------------------------------------------------|
D|---6-6-6-6-6-6-6-6--/----9--9--9--9--9--9--9--9--/---2-2-2-2-2-2-2-2-------|
A|---7-7-7-7-7-7-7-7--/---11-11-11-11-11-11-11-11--/---4-4-4-4-4-4-4-4-------|
E|---------------------------------------------------------------------------|
                             (just before the chorus stay on the A5)
e|-----------------------||--------------------------------------------------|
B|-----------------------||--------------------------------------------------|
G|-----------------2-----||--------------------------------------------------|
D|---2-2-2-2-4-4-4-4-----||---2-2-2-2-2-2-2-2--------------------------------|
A|---0-0-0-0-0-0-0-0-----||---0-0-0-0-0-0-0-0--------------------------------|
E|-----------------------||--------------------------------------------------|

  Chorus  (I've tabbed it in 8ths but strum it)
                     
e|---------------------------------------------------------------------------|
B|---------------------------------------------------------------------------|
G|--8-8-8-8-8-8-8-8---4-4-4-4-4-4-4-4---2-2-2-2-2-2-2-2---2-2-2-2-2-2-2-2----|
D|--9-9-9-9-9-9-9-9---4-4-4-4-4-4-4-4---2-2-2-2-2-2-2-2---2-2-2-2-2-2-2-2----|
A|--9-9-9-9-9-9-9-9---------------------0-0-0-0-0-0-0-0----------------------|
E|--7-7-7-7-7-7-7-7---4-4-4-4-4-4-4-4---------------------2-2-2-2-2-2-2-2----|

                                      (let A ring to resolve or repeat as above)
e|---------------------------------------------------------------------------|
B|---------------------------------------------------------------------------|
G|--8-8-8-8-8-8-8-8---4-4-4-4-4-4-4-4---2------------------------------------|
D|--9-9-9-9-9-9-9-9---4-4-4-4-4-4-4-4---2------------------------------------|
A|--9-9-9-9-9-9-9-9---------------------0------------------------------------|
E|--7-7-7-7-7-7-7-7---4-4-4-4-4-4-4-4----------------------------------------|


Instrumental   (play bracketed notes second time through)

e|-----12-----12--------11------11----------=9-----(9)--11---12--------------|
B|--------------------12------12---(12)---10---(10)--------------------------|
G|---13-----13--(13)--------------------------------------------(13)---------|
D|---------------------------------------------------------------------------|
A|---------------------------------------------------------------------------|
E|---------------------------------------------------------------------------|

e|--------------12----------12-----------------------------------------------|
B|---------------------------------------------------------------------------|
G|---13-(h)-14------14--13---------------------------------------------------|
D|---------------------------------------------------------------------------|
A|---------------------------------------------------------------------------|
E|---------------------------------------------------------------------------|


  Bridge     (again tabbed in 8ths but get a feel for it and strum it)

e|--12-12-12-12-12-12-12-12-12-12-12-12-12-12-12-12-11--11-11-11-11-11-11-11-|
B|--12-12-12-12-12-12-12-12-12-12-12-12-12-12-12-12-12--12-12-12-12-12-12-12-|
G|--9--9--9--9--9--9--9--9--9--9--9--9--9--9--9--9---------------------------|
D|---------------------------------------------------------------------------|
A|---------------------------------------------------------------------------|
E|---------------------------------------------------------------------------|

e|--11-11-11-11-11-11-11-11--9--9--9--9--9--9--11-11-12-12-12-12-12-12-12-12-|
B|--12-12-12-12-12-12-12-12--10-10-10-10-10-10-10-11-9--9--9--9--10-10-10-10-|
G|---------------------------9--9--9--9--9--9--9--9--9--9--9--9--9--9--9--9--|
D|---------------------------------------------------------------------------|
A|---------------------------------------------------------------------------|
E|---------------------------------------------------------------------------|

e|--12-12-12-12-12-12-12-12-12-12-12-12-12-12-12-12--------------------------|
B|--12-12-12-12-12-12-12-12-12-12-12-12-12-12-12-12--------------------------|
G|--9--9--9--9--9--9--9--9--9--9--9--9--9--9--9--9---------------------------|
D|---------------------------------------------------------------------------|
A|---------------------------------------------------------------------------|
E|---------------------------------------------------------------------------|



Intro E  G#m7, C#m  A

Verse:
E             G#m
Your grace is enough
            C#m
More than I need
        A           E
At Your word I will believe
  G#m     
I wait for You
          C#m
Draw near again
         A             B
Let Your Spirit make me new


Chorus:

       E/G#         A
I will fall at Your feet
       F#m7         B/D#
I will fall at Your feet
           E/G#        A    (F#m7 to repeat Chorus)
And I will worship You here


Verse:

Your presence in me
Jesus light the way
By the power of Your word
I am restored
I am redeemed
By Your Spirit I am free 


Instrumental: E  B  F#m7  C#m  A  E


Bridge:

           E
Freely You gave it all for us
                 B
Surrendered Your life upon that cross
             F#m7
Great is the love 
               C#m
Poured out for all
     A       B
This is our God
          E
Lifted on high from death to life
            B
Forever our God is glorified
            F#m7
Servant and King
            C#m
Rescued the world
     A
This is our God


************************************

| /   slide up
| \   slide down
| h   hammer-on
| p   pull-off
| ~   vibrato
| +   harmonic
| x   Mute note
| b   Bend
| pb  Pre-bend
| br  Bend release
| pbr Pre-bend release
| brb Bend release bend

************************************
Tap to rate this tab
# A B C D E F G H I J K L M N O P Q R S T U V W X Y Z