Song name
# A B C D E F G H I J K L M N O P Q R S T U V W X Y Z

Hillsong Live - I Surrender tab

-------------------------------------------------------------------------------
                             I surrender intro (no capo)  - Hillsong
-------------------------------------------------------------------------------
Tabbed by:
note: key F(original) no capo so chords are Dm, F, C, Bb or A#

Tuning:EADGBE

Dm shape 
part 1) (A F F)x3 E D C then repeat x2

e|---------1-1---------1-1-------1-1----0------------------------------------|
B|------------------------------------------3-1------------------------------|
G|---2-----------2----------2------------------------------------------------|
D|---------------------------------------------------------------------------|
A|---------------------------------------------------------------------------|
E|---------------------------------------------------------------------------|x2

part 2) (G F F)x3 E D C

e|--------1-1---------1-1-----1-1-----0--------------------------------------|
B|---------------------------------------3-1---------------------------------|
G|---0-----------0---------0-------------------------------------------------|
D|---------------------------------------------------------------------------|
A|---------------------------------------------------------------------------|
E|---------------------------------------------------------------------------|
part 3) (Bb F F)x3 E D C

e|-----------1-1-----1-1----1-1-----0----------------------------------------|
B|----------------------------------------3-1--------------------------------|
G|----3-----------3------3---------------------------------------------------|
D|---------------------------------------------------------------------------|
A|---------------------------------------------------------------------------|
E|---------------------------------------------------------------------------|


then repeat every thing as many times as you want three is fine tho.



************************************

| /   slide up
| \   slide down
| h   hammer-on
| p   pull-off
| ~   vibrato
| +   harmonic
| x   Mute note
| b   Bend
| pb  Pre-bend
| br  Bend release
| pbr Pre-bend release
| brb Bend release bend

************************************
Tap to rate this tab
# A B C D E F G H I J K L M N O P Q R S T U V W X Y Z