Guitaretab - guitar tabs
Song name
# A B C D E F G H I J K L M N O P Q R S T U V W X Y Z

Hillsong London - Follow The Son tab

The song is from Hillsongīs album "Mighty to Save"!!! It is a great worship song and has
great message. I really love it. It is very guitar driven and consist a lot riffs!!
donīt mind if my english isnīt perfect!!! Iīm from Germany ;-)


Intro:

Timon Kleinīs part
   C#   B   C#  F#    E       B
e|-----------------0-0-0-0-0-0-0-0----------------------------------|
B|-----------------0-0-0-0-0-0-0-0----------------------------------|
G|-6-6-4-4-6-6-----1-1-1-1-4-4-4-4----------------------------------|
D|-------------4-4-2-2-2-2-4-4-4-4----------------------------------|
A|-4-4-2-2-4-4-----2-2-2-2-2-2-2-2----------------------------------|
E|-------------2-2-0-0-0-0-0-0-0-0----------------------------------|

Nigelīs part
e|-------------------------------------------------------|
B|---9--9--7--7--9--9--10--10--9--9--9--9--7--7--7--7~---|
G|---9--9--9--9--9--9--9---9---9--9--9--9--9--9--9--9~---|
D|-------------------------------------------------------|
A|-------------------------------------------------------|
E|-------------------------------------------------------|

Vers:

Timon Klein keeps playing his guitar part above.
But Nigelīs part is different!!!
e|-------------------------------------------------------|
B|---9---7---9---10---9---9-7----------------------------|
G|-----9---9---9---9---9-----8---------------------------|
D|----------------------9-----9--------------------------|
A|-------------------------------------------------------|
E|-------------------------------------------------------|
It is a little bit difficult, cause its very fast!!!!

Pre-Chorus:

Timon Kleinīs part:
He is just playing the chords
    F#     E      B     C#m
e|--2------0--------------------------------------|
B|--4-(x8)-2-(x8)-2------4------------------------|
G|--4------2------4-(x8)-6-(x8)-------------------|
D|--3------1------4------6------------------------|
A|--2------0------4------5------------------------|
E|--2------0------2------4------------------------|

Nigelīs part:
Over that Nigel plays this at the same time!!!
e|----9--------9--------------9----------|
B|----10-(x8)--9-(x8)--7------9-(x8)-----|
G|----11-------9-------8-(x8)-9----------|
D|----9--------9-------9------10---------|
A|---------------------------------------|
E|---------------------------------------|

Chorus:
[ Tab from: http://www.guitaretab.com/h/hillsong-london/76922.html ]
Timon Klein again just plays the chords:

A(x8) E(x8) B(x8) C#m(x4) B(x4)
A(x8) E(x8) B(x16)
A(x8) E(x8) B(x8) C#m(x4) B(x4)
C#m(x1) B(x1) A(x1)

Nigel plays this

e|----9--------4-------11------12------11---------|
B|----10-(x8)--5-(x8)--12-(x8)-12-(x4)-12-(x4)----|
G|----9--------4-------11------11------11---------|
D|------------------------------------------------|
A|------------------------------------------------|
E|------------------------------------------------|

He just slides de D-Chord !!!! :-) And than

e|------------------------------------------------|
B|------------------------------------------------|
G|------9-------8-------6~------------------------|
D|------------------------------------------------|
A|------7-------6-------4~------------------------|
E|------------------------------------------------|

Solo after the chorus:

Nigelīs part

e|---12-12-11-11-12-12-----------12---11~-----|
B|---------------------10-10-9-9----9-----12--|
G|--------------------------------------------|
D|--------------------------------------------|
A|--------------------------------------------|
E|--------------------------------------------|

Kleinīs part

e|------------------------------------------------|
B|------------------------------------------------|
G|------------------------------------------------|
D|------------------------------------------------|
A|---4-4---------4-4-7-7-7-7-2-2-2-2--------------|
E|-------4-4-5-5----------------------------------|

Solo:

Timon Klein again plays the Chords

A   C#m   E(high)   B
A   C#m   E(high)   F#(high)

Nigel plays

e|--------9-------------------------------------------------------------|
B|--5-----9-----12-----12------14------------------------16-------------|
G|--6-----9-----13-----11--or--15-at the second time-or--16-at the end--|
D|--7-----------14-----13------16------------------------16-------------|
A|----------------------------------------------------------------------|
E|----------------------------------------------------------------------|

end

Iīm hoping that you will understand it. Listen to the song for the right timing and
watch the "Follow the son guitarworkshop" at YouTube
It is my first tab so maybe I have done some mistakes. Please e-mail me for
comments: raphael-zim@hotmail.de
You can also e-mail me if you have some questions!!!!!

So have fun !!!!

"Rock `nī Roll for Jesus"
Related for Follow The Son tab
Follow The Son chords by Hillsong London