Song name
# A B C D E F G H I J K L M N O P Q R S T U V W X Y Z

Hillsong London - Only One For Me tab

Hillsong London - Only One for me
Album: Jesus Is
Tabbed by: kirbydpunk
           Cubacub Christian Fellowship (CCF)
           Mandaue, Cebu City Philippines 
           

I tabbed this as close as possible to the song. 


Guitar and Bass 

Intro and Verses
B|----------------------------------------------------|
G|----------------------------------------------------|
D|----------------------------------------------------|   
A|---9-9-9-9--11/9/11--7-7-7-7--9/7-------------------|
E|----------------------------------------------------|

Refrain:

    use power chords
B|----------------------------------------------------|
G|---------------------4-/-------------------9--------|
D|---6-----4-----2-----4-/-4-/-6-----6---4---9--------|   
A|---6-----4-----2-----2-/-4-/-6-----6---4---7--------|
E|---4-----2-----0---------2-/-4-----4---2------------|
	
Chorus:
power chords
B|-----------------------|
G|---4-------------------|
D|---4----4----6---2-----|   
A|---2----4----6---2-----|
E|--------2----4---0-----|

instrumental:
i'm not sure
Use power chords


instrumental

guitar 1:
G#m-Bm-F#m

lead guitar2:
     
B|---16/16/16---------------------------------|
G|------------16/16/16-----------17/17--------|
D|---------------------16/16/16--------16-----I
A|--------------------------------------------|
E|--------------------------------------------|


Coda:
B|--------------------------------------------|
G|----------------4---------------------------|
D|---6------------4----4----------------------|   
A|---6------------2----4----------------------|
E|---4-----------------2------------------ ---|
Never wanna be, Never wanna be, livin livin



f0r your comments and sugestion Email me at kirbydpunk@yahoo.com
Tap to rate this tab
 
# A B C D E F G H I J K L M N O P Q R S T U V W X Y Z