Song name
# A B C D E F G H I J K L M N O P Q R S T U V W X Y Z

Hillsong United - Tell The World That Acoustic tab

Help us improve GuitareTab! Take a short survey!
Tell the World-Hillsong United (real way) acoustic   (tabbed by Colby Clites)

 (in correct order, 100% correct)

(Bass Part)-
e----------------------------------------------|
b----------------------------------------------|
g----------------------------------------------|
d----------------------------------------------|
a-9-9-9-8-8-8----------------------------------|
e------------9-9-10-10-10-9-9-9-5-5------------|

(Intro Gtr.2)-
e----------------------------------------------|x4
b----------------------------------------------|
g-11-11-11-11--7--7--7--6--6-------------------|
d-11-11-11-11--7--7--7--6--6-------------------|
a-9--9--9--9---5--5--5--4--4-------------------|
e----------------------------------------------|

(intro Gtr.1)-
e----------------------------------------------|x2
b----------------------------------------------|
g----------------------------------------------|
d----------------------------------------------|
a-9-9-9-8-8-8----------------------------------|
e------------9-9-10-10-10-9-9-9-5-5------------|

(Verse 1)-
e----------------------------------------------|x4
b----------------------------------------------|
g-11-11-11-11-11-11-7-7-6-6--------------------|
d-11-11-11-11-11-11-7-7-6-6--------------------|
a-9--9--9--9--9--9--5-5-4-4--------------------|
e----------------------------------------------|

(Pre Chorus Gtr.1)-
e----------------------------------------------|
b----------------------------------------------|
g----------------------------------------------|
d----------------------------------------------|
a-9-9-9-8-8-8----------------------------------|
e------------9-9-10-10-10-9-9-9-5-5------------|

(Pre Chorus Gtr.2)-
e----------------------------------------------|x4
b----------------------------------------------|
g-11-11-11-11-11-11-7-7-6-6--------------------|
d-11-11-11-11-11-11-7-7-6-6--------------------|
a-9--9--9--9--9--9--5-5-4-4--------------------|
e----------------------------------------------|

(Chorus)-
e----------------------------------------------|x2
b----------------------------------------------|
g-2-2-2-2-1-1-1-1----------7-7-7-7-------------|
d-2-2-2-2-2-2-2-2--4-4-4-4-7-7-7-7-------------|
a---------2-2-2-2--4-4-4-4-5-5-5-5-------------|
e------------------2-2-2-2---------------------|

(Pre Verse Thing)-
e----------------------------------------------|x2
b----------------------------------------------|
g-11-11-11-11--7--7--7--6--6-------------------|
d-11-11-11-11--7--7--7--6--6-------------------|
a-9--9--9--9---5--5--5--4--4-------------------|
e----------------------------------------------|

(Verse.2)-
e----------------------------------------------|x5
b----------------------------------------------|
g-11-11-11-11-11-11-7-7-6-6--------------------|
d-11-11-11-11-11-11-7-7-6-6--------------------|
a-9--9--9--9--9--9--5-5-4-4--------------------|
e----------------------------------------------|

(Chorus)-
e----------------------------------------------|x4
b----------------------------------------------|
g-2-2-2-2-1-1-1-1----------7-7-7-7-------------|
d-2-2-2-2-2-2-2-2--4-4-4-4-7-7-7-7-------------|
a---------2-2-2-2--4-4-4-4-5-5-5-5-------------|
e------------------2-2-2-2---------------------|

(Bridge)-
e----------------------------------------------|x3
b----------------------------------------------|
g-2-2-2-2-4-4-4-4---------7-7-7-7--------------|
d-2-2-2-2-4-4-4-4-4-4-4-4-7-7-7-7--------------|
a---------2-2-2-2-4-4-4-4-5-5-5-5--------------|
e-----------------2-2-2-2----------------------|

(Chorus)-
e----------------------------------------------|x7
b----------------------------------------------|
g-2-2-2-2-1-1-1-1----------7-7-7-7-------------|
d-2-2-2-2-2-2-2-2--4-4-4-4-7-7-7-7-------------|
a---------2-2-2-2--4-4-4-4-5-5-5-5-------------|
e------------------2-2-2-2---------------------|
Related for Tell The World That Acoustic tab