Song name
# A B C D E F G H I J K L M N O P Q R S T U V W X Y Z

Hillsong United - Love Enough 2008 tab

Tabs
Intro
Play each note several times, use delay.
------------------------|
-----3h5-------3h5--3---|
-5-4-------5-4----------|
------------------------|
------------------------|
------------------------|

Verse
Play each note several times, like playing the bass.
--------------|
--------------|
--------------|
--------------|
-0-----3------|
----1-----3---|

At the 2nd part, strum:
-5--5--5--3--1--5--3---|
-5--6--5--3--1--5--3---|
-5--5--5--4--2--5--4---|
-----------------------|
-----------------------|
-----------------------|

Chorus
I did a post on these type of chords once, check it out.

Strum:
-----------------|
-13--10--6--8----|
-12--9---5--7----|
-10--7---3--5----|
-----------------|
-----------------|

Bridge
Strum
-------3--|
-5--5--3--|
-5--5--4--|
-3--7--5--|
----------|
----------|

Play several times
-----------------|
-6-5----6-5------|
-----5------5----|
-----------------|
-----------------|
-----------------|

To end the bridge:
-----------------|
-6-5----6-5------|
-----5------7-5--|
-----------------|
-----------------|
-----------------|
Tap to rate this tab
# A B C D E F G H I J K L M N O P Q R S T U V W X Y Z