Song name
# A B C D E F G H I J K L M N O P Q R S T U V W X Y Z

Hillsong United - Lead Me To The Cross tab

HILLSONG UNITED - LEAD ME TO THE CROSS

Intro: Em,A2,G,Em,A2,G
 
Verse1:

 Em           A2
Savior I come
           G      D  A2 
Quiet my soul remember
 Em             A2
Redemptions hill
                   G
Where Your blood was spilled
       D     A2
For my ransom
 Em          A2
Everything I once held dear
 Em                G
I count it all as lost

Chorus:

              G
Lead me to the cross
           D           A2
Where Your love poured out
              G
Bring me to my knees
       D       A2
Lord I lay me down
          G 
Rid me of myself
     D       A2
I belong to You
        G    D     A2     Em
Lead me, lead me to the cross

Solo:

e|-----------------------14-------|
B|---7-8-7-8-12-14-12-14----------|
G|--------------------------------|
D|--------------------------------|
A|--------------------------------|
E|--------------------------------|

e|-----------------------12------------|
B|---7-8-7-8-12-14-12-14----15-10-7----|
G|-------------------------------------|
D|-------------------------------------|
A|-------------------------------------|
E|-------------------------------------|


Verse2:

  Em       A2
You were as I
            G
Tempted and trialed
   D   A2
You are
 Em            A2
The word became flesh
               G   
Bore my sin and death
        D     A2
Now you're risen

Tap to rate this tab
# A B C D E F G H I J K L M N O P Q R S T U V W X Y Z