Guitaretab - guitar tabs
Song name
# A B C D E F G H I J K L M N O P Q R S T U V W X Y Z

Hillsong United - My Future Decided tab

-------------------------------------------------------------------------------
MY FUTURE DECIDED  Hillsong United
-------------------------------------------------------------------------------
Tuning: Standard
4 Guitars arr. For 2
Written by:
Jonathan Douglas/Joel Houston/Marty Sampson

Intro

Gtr. 1
e|-----------------------------------------------------------------------|
B|-----------------------------------------------------------------------|
G|-----------------------------------------------------------------------|
D|11-11-------------11-11-----12-12-11-11-7-7-7-7-7-7-7-7-7-7-7-7-9-9-9-9|
A|------9-9-9-9-9-9-------9-9--------------------------------------------|
E|-----------------------------------------------------------------------|x2

e|-----------------------------------------------------------------------|
B|-----------------------------------------------------------------------|
G|-----------------------------------------------------------------------|
D|-----------------------------------------------------------------------|
A|-4-4-------------4-4-----5-5-4-4-0-0-0-0-0-0-0-0-0-0-0-0-2-2-2-2-------|
E|-----2-2-2-2-2-2-----2-2-----------------------------------------------|

e|-----------------------------------------------------------------------|
B|-------------------------------------------------101010109-9-9-9-7-----|
G|-------------------------------------------------x-x-x-x-x-x-x-x-x-----|
D|-------------------------------------------------7-7-7-7-6-6-6-6-4b----|
A|-4-4-------------4-4-----5-5-4-4-0-0-0-0-0-0-0-0-----------------------|
E|-----2-2-2-2-2-2-----2-2-----------------------------------------------|

Gtr. 2
e|---------------------------------------------------------------|
B|---------------------------------------------------------------|
G|-11-11-11-11-11-11-11-11----14-14-14-14-14-14-14-14------------|
D|-11-11-11-11-11-11-11-11-x2-14-14-14-14-14-14-14-14---x2-------|
A|-9--9--9--9--9--9--9--9-----12-12-12-12-12-12-12-12------------|  x2
E|---------------------------------------------------------------|

Verse

Gtr. 2
e|---------------------------------------------------------------|
B|-----------14----14------------14----14------------14----14----|
G|-14-14-14-----14-----14-14-14-----14-----14-14-14-----14-------|
D|---------------------------------------------------------------|
A|---------------------------------------------------------------|
E|---------------------------------------------------------------|
	
e|---------------------------------------------------------------|
B|-----------15----15------------14----14------------14----14----|
G|-14-14-14-----14-----14-14-14-----14-----14-14-14-----14-------|
D|---------------------------------------------------------------|
A|---------------------------------------------------------------|
E|---------------------------------------------------------------|

e|-------------------------------------------|
B|-----------14----14------------14----14----|
G|-14-14-14-----14-----14-14-14-----14-------|
D|-------------------------------------------|
A|-------------------------------------------| x2
E|-------------------------------------------|

Gtr. 1
e|---------------------------------------------------------------|
B|-9--------------10-------------12---------------x-x-x-x--------|
G|-12/13-13-13-13-13/14-14-14-14-15-16-16-16-16/--x-x-x-x--------|
D|------------------------------------------------x-x-x-x--------|
A|------------------------------------------------x-x-x-x--------|
E|------------------------------------------------x-x-x-x--------|

Chorus

Gtr. 1, 2
e|---------------------------------------------------------------|
B|---------------------------------------------------------------|
G|-------7-7-7-7-----------------------7-7-7-7--111111111111-----|
D|-7--7--7-7-7-7-4-4-4-4-4-4-x-x-7--7--7-7-7-7--111111111111-----|
A|-7--7--5-5-5-5-4-4-4-4-4-4-x-x-7--7--5-5-5-5--9-9-9-9-9-9------|
E|-5--5----------2-2-2-2-2-2-x-x-5--5----------------------------|
	
e|----------------------------------------------------------------|
B|--------------------------------------------------------x1.5----|
G|-7-7-7-7-7-7-7-7------------------------------------------------|
D|-7-7-7-7-7-7-7-7-7-7-7-7-7-7-7-7-2-2-2-2-2-2-2-2-2-2-2-2-2-2-2-2|
A|-5-5-5-5-5-5-5-5-7-7-7-7-7-7-7-7-2-2-2-2-2-2-2-2-2-2-2-2-2-2-2-2|
E|-----------------5-5-5-5-5-5-5-5-0-0-0-0-0-0-0-0-0-0-0-0-0-0-0-0|

Post- Chorus

Gtr. 1
e|-----------------------------------------------------------------------|
B|-----------------------------------------------------------------------|
G|-----------------------------------------------------------------------|
D|-----------------------------------------------------------------------|
A|-4-4-------------4-4-----5-5-4-4-0-0-0-0-0-0-0-0-0-0-0-0-2-2-2-2-------|
E|-----2-2-2-2-2-2-----2-2-----------------------------------------------|

e|-----------------------------------------------------------------------|
B|-------------------------------------------------101010109-9-9-9-7-----|
G|-------------------------------------------------x-x-x-x-x-x-x-x-x-----|
D|-------------------------------------------------7-7-7-7-6-6-6-6-4b----|
A|-4-4-------------4-4-----5-5-4-4-0-0-0-0-0-0-0-0-----------------------|
E|-----2-2-2-2-2-2-----2-2-----------------------------------------------|

Gtr. 2
e|---------------------------------------------------------------|
B|---------------------------------------------------------------|
G|-11-11-11-11-11-11-11-11----14-14-14-14-14-14-14-14------------|
D|-11-11-11-11-11-11-11-11-x2-14-14-14-14-14-14-14-14---x2-------|
A|-9--9--9--9--9--9--9--9-----12-12-12-12-12-12-12-12------------|  x2
E|---------------------------------------------------------------|

Verse

Gtr. 2
e|---------------------------------------------------------------|
B|-----------14----14------------14----14------------14----14----|
G|-14-14-14-----14-----14-14-14-----14-----14-14-14-----14-------|
D|---------------------------------------------------------------|
A|---------------------------------------------------------------|
E|---------------------------------------------------------------|
	
e|---------------------------------------------------------------|
B|-----------15----15------------14----14------------14----14----|
G|-14-14-14-----14-----14-14-14-----14-----14-14-14-----14-------|
D|---------------------------------------------------------------|
A|---------------------------------------------------------------|
E|---------------------------------------------------------------|
[ Tab from: http://www.guitaretab.com/h/hillsong-united/161349.html ]
e|-------------------------------------------|
B|-----------14----14------------14----14----|
G|-14-14-14-----14-----14-14-14-----14-------|
D|-------------------------------------------|
A|-------------------------------------------| x2
E|-------------------------------------------|

Gtr. 1
e|-----------------------------------------------------|
B|-9--------------10-------------12--------------------|
G|-12/13-13-13-13-13/14-14-14-14-15-16-16-16-16/-------|
D|-----------------------------------------------------|
A|-----------------------------------------------------|
E|-----------------------------------------------------|

Chorus

Gtr. 1, 2
e|---------------------------------------------------------------|
B|---------------------------------------------------------------|
G|-------7-7-7-7-----------------------7-7-7-7--111111111111-----|
D|-7--7--7-7-7-7-4-4-4-4-4-4-x-x-7--7--7-7-7-7--111111111111-----|
A|-7--7--5-5-5-5-4-4-4-4-4-4-x-x-7--7--5-5-5-5--9-9-9-9-9-9------|
E|-5--5----------2-2-2-2-2-2-x-x-5--5----------------------------|
	
e|----------------------------------------------------------------|
B|-------------------------------------------------------x2-------|
G|-7-7-7-7-7-7-7-7------------------------------------------------|
D|-7-7-7-7-7-7-7-7-7-7-7-7-7-7-7-7-2-2-2-2-2-2-2-2-2-2-2-2-2-2-2-2|
A|-5-5-5-5-5-5-5-5-7-7-7-7-7-7-7-7-2-2-2-2-2-2-2-2-2-2-2-2-2-2-2-2|
E|-----------------5-5-5-5-5-5-5-5-0-0-0-0-0-0-0-0-0-0-0-0-0-0-0-0|


Breakdown

Gtr. 2
e|---------------------------------------------------------------|
B|---------------------------------------------------------------|
G|-11-11-11-11-11-11-11-11----14-14-14-14-14-14-14-14------------|
D|-11-11-11-11-11-11-11-11-x2-14-14-14-14-14-14-14-14---x2-------|
A|-9--9--9--9--9--9--9--9-----12-12-12-12-12-12-12-12------------|  x2
E|---------------------------------------------------------------|

Gtr. 1
e|-------------17-16-------------------------------------------------------|
B|-17-17-17-17-------17-19-------------------------------10----10----10----|
G|-------------------------14-14-14-14-14-14-14-14-14-14-14-14-14-14-14-14-|
D|-------------------------------------------------------------------------|
A|-------------------------------------------------------------------------|
E|-------------------------------------------------------------------------|

e|-------------17-16-------------------------------------------------------|
B|-17-17-17-17-------17-19-------------------------5----3----3-------------|
G|-------------------------14-14-14-14-14-14-14-14-8b9--6b76b7r6~---------|
D|-------------------------------------------------------------------------|
A|-------------------------------------------------------------------------|
E|-------------------------------------------------------------------------|

Bridge

Gtr 1.
e|-------------------------------------------------|
B|-10-10-10-9--10---10-10-10-9-10-----------------|
G|-11-11-11-11-11---11-11-11-11-11-----------------|
D|-------------------------------------------------|
A|-------------------------------------------------|
E|-------------------------------------------------|

Gtr. 2
e|-10-10-10-10--10---10-10-10-10--10---------------|
B|--9--9--9--9---9----9--9--9-9---9---------------|
G|-------------------------------------------------|
D|-------------------------------------------------|
A|-------------------------------------------------|
E|-------------------------------------------------|

Gtr 1.
e|-------------------------------------------------|
B|-10-10-10-9--10---10-10-10-9--10-----------------|
G|-11-11-11-11-11---11-11-11-11-11-----------------|
D|-------------------------------------------------|
A|-------------------------------------------------|
E|-------------------------------------------------|

Gtr. 2
e|-10-10-10-10-10-10-10-10-10-10-10-10-10-10-10-10-|
B|--9--9--9--9--9--9--9--9-9--9--9-9-9--9--9--9-|
G|-------------------------------------------------|
D|-------------------------------------------------|
A|-------------------------------------------------|
E|-------------------------------------------------|

Chorus

Gtr. 1, 2
e|---------------------------------------------------------------|
B|---------------------------------------------------------------|
G|-------7-7-7-7-----------------------7-7-7-7--111111111111-----|
D|-7--7--7-7-7-7-4-4-4-4-4-4-x-x-7--7--7-7-7-7--111111111111-----|
A|-7--7--5-5-5-5-4-4-4-4-4-4-x-x-7--7--5-5-5-5--9-9-9-9-9-9------|
E|-5--5----------2-2-2-2-2-2-x-x-5--5----------------------------|
	
e|----------------------------------------------------------------|
B|-------------------------------------------------------x2-------|
G|-7-7-7-7-7-7-7-7------------------------------------------------|
D|-7-7-7-7-7-7-7-7-7-7-7-7-7-7-7-7-2-2-2-2-2-2-2-2-2-2-2-2-2-2-2-2|
A|-5-5-5-5-5-5-5-5-7-7-7-7-7-7-7-7-2-2-2-2-2-2-2-2-2-2-2-2-2-2-2-2|
E|-----------------5-5-5-5-5-5-5-5-0-0-0-0-0-0-0-0-0-0-0-0-0-0-0-0|

Outro

Gtr. 1
e|---------------------------------------------------------------|
B|---------------------------------------------------------------|
G|-------7-7-7-7-----------------------7-7-7-7--111111111111-----|
D|-7--7--7-7-7-7-4-4-4-4-4-4-x-x-7--7--7-7-7-7--111111111111-----|
A|-7--7--5-5-5-5-4-4-4-4-4-4-x-x-7--7--5-5-5-5--9-9-9-9-9-9------|
E|-5--5----------2-2-2-2-2-2-x-x-5--5----------------------------|
	
e|----------------------------------------------------------------|
B|-------------------------------------------------------x2-------|
G|-7-7-7-7-7-7-7-7------------------------------------------------|
D|-7-7-7-7-7-7-7-7-7-7-7-7-7-7-7-7-2-2-2-2-2-2-2-2-2-2-2-2-2-2-2-2|
A|-5-5-5-5-5-5-5-5-7-7-7-7-7-7-7-7-2-2-2-2-2-2-2-2-2-2-2-2-2-2-2-2|
E|-----------------5-5-5-5-5-5-5-5-0-0-0-0-0-0-0-0-0-0-0-0-0-0-0-0|

Gtr. 2
e|----------------------------------------------------------------|
B|-5-5-5-5-5-5-5-5-5-5-5-5-5-5-5-5-5-5-5-5-5-5-5-5-5-5-5-5-5-5-5-5|
G|-x-x-x-x-x-x-x-x-x-x-x-x-x-x-x-x-x-x-x-x-x-x-x-x-x-x-x-x-x-x-x-x|
D|-7-7-7-7-7-7-7-7-7-7-7-7-7-7-7-7-7-7-7-7-7-7-7-7-7-7-7-7-7-7-7-7|
A|----------------------------------------------------------------|
E|---------------------------------------------------x2-----------|

e|--------------------------------------------------------------------------|
B|-14-14-14-14-14-14-14-14-14-14-14-14-10-10-10-10-9-9-9-9-9-7-7-7-7-5-5-5-5|
G|--------------------------------------9--9--9--9-9-9-9-9-9-7-7-7-7-4-4-4-4|
D|--------------------------------------------------------------------------|
A|------------------------------------------------x3------------------------|
E|--------------------------------------------------------------------------|

Gtr. 1, 2
e|------------------------------------------|
B|------------------------------------------|
G|-7-7-7-7~---------------------------------|
D|-7-7-7-7~---7-7-7-7~---7-2~--------------|
A|-5-5-5-5~---7-7-7-7~---7-2~--------------|
E|------------5-5-5-5~---5-0~--------------|

Fin.
Related for My Future Decided tab