Guitaretab - guitar tabs
Song name
# A B C D E F G H I J K L M N O P Q R S T U V W X Y Z

Hillsong United - Kingdom Come tab

-------------------------------------------------------------------------
Hillsong United  Kingdom Come
-------------------------------------------------------------------------
Band: Hillsong United
Song: Kingdom Come
Album: United We Stand
Tabber: Emolove 

Well...i love this song, its one of the best song in the album
I think its pretty close to the original song...so plz enjoy =)

GUITAR 1
--------------------------------------------------------------------
Intro/Bridge (x2)

e|-----------------------------------------------------------------|
B|---777-555-777-555-77-5h7/10-1010--555-777-555-777-5h7/12-1212---|
G|-----------------------------------------------------------------|
D|-----------------------------------------------------------------|
A|-----------------------------------------------------------------|
E|-----------------------------------------------------------------|
                              
e|-------------------------------------------------|
B|---555-777-555-777-5h7---------------------------|
G|-----------------------777-666-444-777-666-444---|
D|-------------------------------------------------|
A|-------------------------------------------------|
E|-------------------------------------------------|


Verse

e|-----------------------------------------------------|
B|-----7~---8~----10---10---10---10---3-3-3-3-3-3-3----|
G|----7~---7~----9----9----9----9----------0-0-0-0-----|
D|---9~---9~---11---11---11---11-----4-4-4-------------|
A|-----------------------------------------------------|
E|-----------------------------------------------------|


PreChorus

e|----------------------------------|---------------------------------|
B|------------------141414-151515---|---101010-121212-141414-151515---|
G|----121212-141414-----------------|---------------------------------|
D|----------------------------------|---------------------------------|
A|----------------------------------|---------------------------------|
E|----------------------------------|---------------------------------|


Chorus

e|-------------|     |-------------------------------------|
B|--8~---12~---|     |-----8--8--8--8--8--12--12--12--12---|
G|--9~---10~---| x2  |----9--9--9--9--9--10--10--10--10----|
D|--7~---8~----|     |---7--7--7--7--7--8---8---8---8------|
A|-------------|     |-------------------------------------|
E|-------------|     |-------------------------------------|



-Intro/Bridge(x2)-


Verse


e|-----------------------|-------------------------|
B|---(one round----------|----7~---8~----10~--8~---|
G|-----without playing)--|---7~---7~----9~---7~----|
D|-----------------------|--9~---9~---11~---5~-----|
A|-----------------------|-------------------------|
E|-----------------------|-------------------------|


-PreChorus-


Chorus

e|-------------------------------------|
B|-------------------------------------|
G|-777-----444-------777-----444-------|
D|-777-555-444-555---777-555-444-555---|
A|-555-555-222-333---555-555-222-555---|
E|-----333-----333-------333-----333---|



-Intro/Bridge (x2)-



Interlude
[ Tab from: http://www.guitaretab.com/h/hillsong-united/162305.html ]
e|----------------------------------------------------------------------|     
B|--12121212-1414-1515--12121212-1414-1515--141414-1515-141414--12(x8)--|     
G|--11111111-1111-1111--12121212-1111-1111--141414-1414-141414--12------| 
D|----------------------------------------------------------------------|     
A|----------------------------------------------------------------------|     
E|----------------------------------------------------------------------|     

-PreChorus (x2)-


Chorus (x2)

e|-------------------------------------|
B|-------------------------------------|
G|-777-----444-------777-----444-------|
D|-777-555-444-555---777-555-444-555---|
A|-555-555-222-333---555-555-222-555---|
E|-----333-----333-------333-----333---|


After playing twice the chorus, this part comes in:


e|---14(x10)-141414-12-14-10--141414-12-14-10--14141414-12-14-15---|
B|-----------------------------------------------------------------|
G|-----------------------------------------------------------------| x2
D|-----------------------------------------------------------------| 
A|-----------------------------------------------------------------|
E|-----------------------------------------------------------------|



Outro (x2)

e|---------------------------------------------------------------|
B|---7-5-7-5-7-5h7/10--5-7-5-7-5h7/12--5-7-5-7-5h7---------------|
G|-------------------------------------------------7-6-4-7-6-4---|
D|---------------------------------------------------------------|
A|---------------------------------------------------------------|
E|---------------------------------------------------------------|



------------------------------------------------------------------------


GUITAR 2
------------------------------------------------------------------------

Intro/Bridge

e|--------------------|
B|--(wait one round---|
G|----guitar 1)-------|
D|--------------------|
A|--------------------|
E|--------------------|

Then this comes in:


e|----------------------------------------|
B|---77777-8888-1010101010--7777-888888---|
G|---77777-7777-7777777777--7777-777777---|
D|----------------------------------------|
A|----------------------------------------|
E|----------------------------------------|


Verse (the guitar 2, doesnt play in the verses)


PreChorus


e|------------|
B|---77777----|
G|---77777----| ---> play this lots
D|------------|
A|------------|
E|------------|



Chorus

e|----------------------------------|     
B|---77777-8888-101010101010-7777---|     
G|---77777-7777-777777777777-7777---| x2  
D|----------------------------------|     
A|----------------------------------|     
E|----------------------------------|     


-Intro/Bridge-


-Verse-


-PreChorus-


-Chorus-

In this part the guitar 1 plays the Intro and then the interlude comes in:


Interlude

e|---------------------------------------------|
B|---------------------------------------------|
G|----99999-1111111111-1313131313-1111111111---|
D|----99999-1111111111-1313131313-1111111111---|
A|----77777-9999999999-1111111111-9999999999---|
E|---------------------------------------------|


-Prechorus-


-Chorus-


Outro 


e|---------------------------------------------------------------|
B|---7-5-7-5-7-5h7/10--5-7-5-7-5h7/12--5-7-5-7-5h7---------------|
G|-------------------------------------------------7-6-4-7-6-4---|
D|---------------------------------------------------------------|
A|---------------------------------------------------------------|
E|---------------------------------------------------------------|

Related for Kingdom Come tab