Song name
# A B C D E F G H I J K L M N O P Q R S T U V W X Y Z

Hillsong United - What The World Will Never Take tab

Help us improve GuitareTab! Take a short survey!
Instrumental:
-------------------------------------------|
------10-----10--10------10-12-12b13r12-10-|
-11-11--11-11--11---10-10------------------|
-------------------------------------------|
-------------------------------------------|
-------------------------------------------|

-----------------------|
-----------------------|
----6---6-6---8---8-8--|
-7-7-7-7-7-9-9-9-9-9---|
-----------------------|
-----------------------|

-------------------------------------------|
------10-----10--10------10-12-12b13r12-10-|
-11-11--11-11--11---10-10------------------|
-------------------------------------------|
-------------------------------------------|
-------------------------------------------|

2nd part "more faster"
-----------14------------------------------|
-12-12b14--17b19--17-17p16h17p16p14--------|
-----------------------------------16-18---|
-------------------------------------------|
-------------------------------------------|
-------------------------------------------|

-----------------------|
-----------------------|
-14--------------------|
---16--14s13-----------|
-----16----------------|
-----------------------|

This Is After The Guitar Solo


You can also do this starting
on the 6th string!
----------------------------|
----------------------------|
----------------------------|
----------------------------|
-------------5-5------------|
------7-7-5-5---5-5---------|

Chords: Bm A D A
Related for What The World Will Never Take tab