Guitaretab - guitar tabs
Song name
# A B C D E F G H I J K L M N O P Q R S T U V W X Y Z

Hillsong United - Perfect Love tab

-------------------------------------------------------------------------------
			     Perfect Love - Hillsong United
-------------------------------------------------------------------------------
Tabbed by:Travis Hunt
Email:frostypenguin0@yahoo.com
Tuning: Standard E



just hold the chords and pick
e|----------2-----------------2-----------------2-----------------2----------|
B|------0-----0---0-------0-----0---0-------0-----0---0-------0-----0---0----|
G|----3---3-----3-------3---3-----3-------3---3-----3-------3---3-----0------|
D|--------------------2-----------------------------------4------------------|
A|--------------------------------------2------------------------------------|
E|--4------------------------------------------------------------------------|

Riff 1
e|---------------------------------------------------------------------------|
B|---------------------------------------------------------------------------|
G|-11-11-11-11-11-11-11-11-9-9-9-9-88888888--6666---9-8-44444444-99999999999-|
D|---------------------------------------------------------------------------|
A|---------------------------------------------------------------------------|
E|---------------------------------------------------------------------------|
[ Tab from: http://www.guitaretab.com/h/hillsong-united/164033.html ]
solo
e|-------------------------------------14--14--14--14--14--------------------|
B|--9-9-9-11-12-12-12-14-16-16-16-14-12--12--12--12--12----------------------|
G|---------------------------------------------------------------------------|
D|---------------------------------------------------------------------------|
A|---------------------------------------------------------------------------|
E|---------------------------------------------------------------------------|

e|-------------------17-14------------14--14--14--14--14---------------------|
B|-16-16-16-16-16-16-------16-16-16-12--12--12--12--12-----------------------|
G|---------------------------------------------------------------------------|
D|---------------------------------------------------------------------------|
A|---------------------------------------------------------------------------|
E|---------------------------------------------------------------------------|

Riff 2
e|------------14-11----11------------14-11-----------------------------------|
B|------------------14---------------------14-12-----------------------------|
G|---11-13-11---------------11-13-11-----------------repeat with the song----|
D|---------------------------------------------------------------------------|
A|---------------------------------------------------------------------------|
E|---------------------------------------------------------------------------|



| /  slide up
| \  slide down
| h  hammer-on
| p  pull-off
| ~  vibrato
| +  harmonic
| x  Mute note
===============================================================================
Related for Perfect Love tab
Perfect Love chords by Hillsong United