Song name
# A B C D E F G H I J K L M N O P Q R S T U V W X Y Z

Hillsong United - Tell The World tab

beginning of song guitar one (this comes in late listen for it)

e-----------------------------------------|
b-----------------------------------------|
g-----------------------------------------|
d--444--222-------------------------------|
a------------44--555--444-----------------|
E--------------------------55-------------|


guitar two

e--9--------16------9------16----14---12-----11-------|    Repeat a few times
b--9--------16------9------16----14---12-----11-------|
g--11-------18------11-----18----16---14-----12-------|
d--9--------16------9------16----14---12-----11-------|
a--9--------16------9------16----14---12-----11-------|
e-----------------------------------------------------|
 (x6)       (X4)   (X4)   (x2)              (x2)
Tap to rate this tab
 
# A B C D E F G H I J K L M N O P Q R S T U V W X Y Z