Song name
# A B C D E F G H I J K L M N O P Q R S T U V W X Y Z

Hillsong United - From God Above tab

These Tabs Are Also Featured Online With Video on www.Guitarpraise.blogspot.com its An 
Site Where You Can Learn From Fellow Christians Such As Yourselves.
Thanks, and Please Check It Out.

Tabs
Intro-Verse
- Use harmonics for all the notes.
- The first 7 notes are to be quickly alternate picked 4 times each (like 'An Introduction').
-------------7--7-7-5-------|
-7-7-7-7-7-7----------------|
----------------------------|
----------------------------|
----------------------------|
----------------------------|

- Here, use harmonics only for the first 6 notes.
- The first 6 notes are to be quickly alternate picked 4 times each.
- The other notes are to be plucked normally, and quickly alternate picked twice each.
-------------------9-10-----|
-7-7-7-7-7-7--9-10----------|
----------------------------|
----------------------------|
----------------------------|
----------------------------|

Pre-Chorus
---------------------9---------|
------------------10---10-(x2)-|
-9h11-9~-(x4)--11--------------|
-------------------------------|
-------------------------------|
-------------------------------|

------9----12-10-9----------|
---10---10---------10-------|
-9--------------------------|
----------------------------|
----------------------------|
----------------------------|

---------------------9------------|
------------------10---10-(x4)-10-|
-9h11-9~-(x4)--11-----------------|
----------------------------------|
----------------------------------|
----------------------------------|

Bridge:
----------------------------------|
-12-12s14-14----------10-12-9-----|
-----------------9-11---------11--|
----------------------------------|
----------------------------------|
----------------------------------|

-------------------------------------|
-10-(x8)--10-(x8)-10-(x8)-10-(x8)-10-|
-11-------9-------11------9-------11-|
-------------------------------------|
-------------------------------------|
-------------------------------------|

----------------------------------|
-10-(x8)--10-(x8)-10-(x8)-10-(x8)-| (x2)
-11-------9-------11------9-------|
----------------------------------|
----------------------------------|
----------------------------------|
Tap to rate this tab
 
# A B C D E F G H I J K L M N O P Q R S T U V W X Y Z