Song name
# A B C D E F G H I J K L M N O P Q R S T U V W X Y Z

Hillsong United - Where The Love Lasts Forever tab

I play in the praise band at my youthgroup and I wanted to learn the guitar
solo for this song but no one had it online so I compiled my own.  This is my 
first tab ever. ENJOY :)

NOTE: I did not create the chords for this tab. I am only using them for the convenience 
this tab. The solo is my only work.

                              SOLO:
     (played before bridge, then the solo continues with the bridge)
E|-------------------------------------------------------------------|
B|-------12-12-14-14-12-12-14-14-12-12-15-15-12-12-------12-12-14-14-|
G|-11-11-------------------------------------------12-12-------------|
D|-------------------------------------------------------------------|
A|-------------------------------------------------------------------|
E|-------------------------------------------------------------------|

E|-------------------------------------------------------12-12-------|
B|-12-12-14-14-12-12-15-15-12-12-------------15-15-------------------|
G|-------------------------------11-11-14-14-------14-14-------14-14-|
D|-------------------------------------------------------------------|
A|-------------------------------------------------------------------|
E|-------------------------------------------------------------------|

E|------------------------------------------------------------------|
B|-15-15-------------------14-14-------15-15-------14-14------------|
G|-------14-14-------14-14-------14-14-------14-14-------14-14------|
D|-------------14-14------------------------------------------------|
A|------------------------------------------------------------------|
E|------------------------------------------------------------------|

Then it repeats. I have played this with the song and it is 100% correct
or close to it. please give me a response on it.


Intro: D  G  Bm  Asus4  A


Verse 1:
D                  G
Your mercy found me,
                    Bm
Upon the broken road,
                    A          D
And lifted me beyond my failing,
               G
Into Your glory,
                             Bm
My sin and shame is dissolved,
                     A
And now forever Yours I'll stand.


PreChorus:
   D/F#   G         A
In love never to end,
   Bm                     D/F#
To call You more than Lord,
  G            Asus4  A
Glorious friend.


Chorus:
          D       G        Bm
So I throw my life upon all You are,
A             D        G             Bm A
?Cause I know You gave it all for me,
           D/F#        G
And when all else fades,
       A          Bm        D/F#
My soul will dance, with You,
          G             Asus4 A  D  G  Bm  Asus4  A
Where the love lasts forever.


Bridge:
A      Bm              G
And forever I will sing,
        D/F#            A
Lord forever I will sing,
            Bm             G
how You gave Your life away,
          D/F#                 A
Just to save me, Lord You saved me.

   Asus4  A  D/F#
With You
           G            Asus4 A
Where the love lasts forever
                D/F#
I'll be with You
           G            Asus4 A
Where the love lasts forever
                  D/F#
I will sing to You
           G            Asus4 A
Where the love lasts forever
                     D/F#
I will dance with You
           G             A
Where the love lasts forever


----------------------------------------------------------------------------
Tap to rate this tab
 
# A B C D E F G H I J K L M N O P Q R S T U V W X Y Z