Song name
# A B C D E F G H I J K L M N O P Q R S T U V W X Y Z

Hillsong United - Hosanna tab

This is my first tab hope you like so...by the way im 13 years old and this is my e-mail 
you like to add me in YAHOO MESSENGER----lemueljohn_lj48@yahoo.com......GOD BLESS 
i almost forgot dont forget to rate if you are blessed THANKS A LOT!!!

   e|---------------------------------------------------------------------|
   B|12----12----12----12----12----9----7----9----(2x)--------------------|
   G|---------------------------------------------------------------------|
   D|---------------------------------------------------------------------|
   A|---------------------------------------------------------------------|
   E|---------------------------------------------------------------------|

   e|---------------------------------------------------------------------|
   B|10--10--10--10--10--9--7--5--4--4--4--4--5--5--7--7--12--12----------|
   G|---------------------------------------------------------------------|
   D|---------------------------------------------------------------------|
   A|---------------------------------------------------------------------|
   E|---------------------------------------------------------------------|

   e|------------------------------------------11---11--11-12-14-14-14-14-|
   B|12h14-12-9-7-9-12-12-12h14-12-9-7-9-10-10---10---10------------------|
   G|---------------------------------------------------------------------|
   D|---------------------------------------------------------------------|
   A|---------------------------------------------------------------------|
   E|---------------------------------------------------------------------|

   GOD BLESS!!!!!!!!!!Tabbed by: LemuelJohn
Tap to rate this tab
# A B C D E F G H I J K L M N O P Q R S T U V W X Y Z