Song name
# A B C D E F G H I J K L M N O P Q R S T U V W X Y Z

Hillsong United - Love Enough tab

Song: Love Enough
Artist: Hillsong United
Album: I Heart Revolution

Tuning
Standard

Note: Michael Guy and Scott tend to switch parts around in the song, so the guitars
labeling may not be subject to the actual song...



GTR 1----------------------------------------------------------------------------------|


INTRO

e|----------------------------------------------------------------------------|
B|-------0-0-0-3-5-5-5-5-5-5-5-5-5-------0-0-0-3-5-5-5-5-5-5-5-5-5------------|
G|-5-5-5-5-5-5-5-5-5-5-5-5-5-5-5-5-5-5-5-5-5-5-5-5-5-5-5-5-5-5-5-5------------|
D|----------------------------------------------------------------------------|
A|----------------------------------------------------------------------x2----|
E|----------------------------------------------------------------------------|

e|----------------------------------------------------------------------------|
B|-------0-0-0-3-5-5-5-5-5-5-5-5-5-------0-0-0-3-5-5-5-5-5-3-3-3-3------------|
G|-5-5-5-5-5-5-5-5-5-5-5-5-5-5-5-5-5-5-5-5-5-5-5-5-5-5-5-5-5-5-5-5------------|
D|----------------------------------------------------------------------x2----|
A|----------------------------------------------------------------------------|
E|----------------------------------------------------------------------------|

VERSE

e|----------------------------------------------------------------------------|
B|----------------------------------------------------------------------------|
G|-----------------------tacet------------------------------------------------|
D|----------------------------------------------------------------------------|
A|----------------------------------------------------------------------------|
E|----------------------------------------------------------------------------|

PRE-CHORUS

e|-5--5--5--5--5--5--5--5--5--5--5--5--3--3--3--3--1--1--1--1--5--5--5--5-3-3-3-3-3-3-3-3-|
B|-5--5--5--5--6--6--6--6--5--5--5--5--3--3--3--3--1--1--1--1--5--5--5--5-3-3-3-3-3-3-3-3-|
G|-5--5--5--5--5--5--5--5--5--5--5--5--4--4--4--4--2--2--2--2--5--5--5--5-4-4-4-4-4-4-4-4-|
D|----------------------------------------------------------------------------------------|
A|----------------------------------------------------------------------------------------|
E|----------------------------------------------------------------------------------------|

CHORUS

e|------------------------------------------------------------------------------------|
B|-13-13-13-13-13-13-13-13-10-10-10-10-10-10-10-10-6-6-6-6-6-6-6-6-8-8-8-8-8-8-8-8----|
G|-12-12-12-12-12-12-12-12-9--9--9--9--9--9--9--9--5-5-5-5-5-5-5-5-7-7-7-7-7-7-7-7----|
D|-10-10-10-10-10-10-10-10-7--7--7--7--7--7--7--7--3-3-3-3-3-3-3-3-5-5-5-5-5-5-5-5----|
A|------------------------------------------------------------------------------------|
E|------------------------------------------------------------------------------------|

POST-CHORUS

e|----------------------------------------------------------------------------|
B|-------0-0-0-3-5-5-5-5-5-5-5-5-5-------0-0-0-3-5-5-5-5-5-3-3-3-3------------|
G|-5-5-5-5-5-5-5-5-5-5-5-5-5-5-5-5-5-5-5-5-5-5-5-5-5-5-5-5-5-5-5-5------------|
D|----------------------------------------------------------------------------|
A|----------------------------------------------------------------------------|
E|----------------------------------------------------------------------------|

VERSE

e|----------------------------------------------------------------------------|
B|----------------------------------------------------------------------------|
G|-----------------------tacet------------------------------------------------|
D|----------------------------------------------------------------------------|
A|----------------------------------------------------------------------------|
E|----------------------------------------------------------------------------|
PRE-CHORUS

e|-5--5--5--5--5--5--5--5--5--5--5--5--3--3--3--3--1--1--1--1--5--5--5--5-3-3-3-3-3-3-3-3-|
B|-5--5--5--5--6--6--6--6--5--5--5--5--3--3--3--3--1--1--1--1--5--5--5--5-3-3-3-3-3-3-3-3-|
G|-5--5--5--5--5--5--5--5--5--5--5--5--4--4--4--4--2--2--2--2--5--5--5--5-4-4-4-4-4-4-4-4-|
D|----------------------------------------------------------------------------------------|
A|----------------------------------------------------------------------------------------|
E|----------------------------------------------------------------------------------------|

CHORUS

e|------------------------------------------------------------------------------------|
B|-13-13-13-13-13-13-13-13-10-10-10-10-10-10-10-10-6-6-6-6-6-6-6-6-8-8-8-8-8-8-8-8----|
G|-12-12-12-12-12-12-12-12-9--9--9--9--9--9--9--9--5-5-5-5-5-5-5-5-7-7-7-7-7-7-7-7----|
D|-10-10-10-10-10-10-10-10-7--7--7--7--7--7--7--7--3-3-3-3-3-3-3-3-5-5-5-5-5-5-5-5----|
A|---------------------------------------------------------------------------------x2-|
E|------------------------------------------------------------------------------------|

BRIDGE

e|----------------------------------------------------------------------------|
B|-5--5--5--5--5--5--5--5--5--5--5--5--5--5--5--5--3-3-3-3-3-3-3-3-3-3-3-3----|
G|-5--5--5--5--5--5--5--5--5--5--5--5--5--5--5--5--4-4-4-4-4-4-4-4-4-4-4-4----|
D|-3--3--3--3--3--3--3--3--7--7--7--7--7--7--7--7--5-5-5-5-5-5-5-5-5-5-5-5----|
A|----------------------------------------------------------------------------|
E|----------------------------------------------------------------------------|

e|----------------------------------------------------------------------------|
B|----------------------------------------------------------------------------|
G|--10-10-10-9-9-9--------10-10-10-9-9----------------------------------------|
D|-----------------10-10---------------10-10----------------------------------|
A|----------------------------------------------------------------------------|
E|----------------------------------------------------------------------------|

e|----------------------------------------------------------------------------|
B|-5--5--5--5--5--5--5--5--5--5--5--5--5--5--5--5--3-3-3-3-3-3-3-3-3-3-3-3----|
G|-5--5--5--5--5--5--5--5--5--5--5--5--5--5--5--5--4-4-4-4-4-4-4-4-4-4-4-4----|
D|-3--3--3--3--3--3--3--3--7--7--7--7--7--7--7--7--5-5-5-5-5-5-5-5-5-5-5-5----|
A|----------------------------------------------------------------------------|
E|----------------------------------------------------------------------------|

e|----------------------------------------------------------------------------|
B|-----------------------------------------------13~--------------------------|
G|--10-10-10-9-9-9-------10-10-9-9---------------12~--------------------------|
D|-----------------10-10-----------12-12-10-10---10~--------------------------|
A|----------------------------------------------------------------------------|
E|----------------------------------------------------------------------------|

CHORUS

e|----------------------------------------------------------------------------|
B|----------------------------------3-3-3-3-3-3-3-3-3-3-3-3-3-3-3-3-----------|
G|-----------tacet------------------4-4-4-4-4-4-4-4-4-4-4-4-4-4-4-4-----------|
D|----------------------------------5-5-5-5-5-5-5-5-5-5-5-5-5-5-5-5-----------|
A|----------------------------------------------------------------------------|
E|----------------------------------------------------------------------------|

e|------------------------------------------------------------------------------------|
B|-13-13-13-13-13-13-13-13-10-10-10-10-10-10-10-10-6-6-6-6-6-6-6-6-8-8-8-8-8-8-8-8----|
G|-12-12-12-12-12-12-12-12-9--9--9--9--9--9--9--9--5-5-5-5-5-5-5-5-7-7-7-7-7-7-7-7----|
D|-10-10-10-10-10-10-10-10-7--7--7--7--7--7--7--7--3-3-3-3-3-3-3-3-5-5-5-5-5-5-5-5----|
A|------------------------------------------------------------------------------------|
E|------------------------------------------------------------------------------------|

e|----------------------------------------------------------------------------|
B|--6-6-6-6-6-6-6-6-6-6-6-6-6-6-6-6-8-8-8-8-8-8-8-8-8-8-8-8-8-8-8-8---6~------|
G|--5-5-5-5-5-5-5-5-5-5-5-5-5-5-5-5-7-7-7-7-7-7-7-7-7-7-7-7-7-7-7-7---5~------|
D|--3-3-3-3-3-3-3-3-3-3-3-3-3-3-3-3-5-5-5-5-5-5-5-5-5-5-5-5-5-5-5-5---3~------|
A|----------------------------------------------------------------------------|
E|----------------------------------------------------------------------------|



GTR 2---------------------------------------------------------------------------------|


INTRO

e|----------------------------------------------------------------------------|
B|----------------------------------------------------------------------------|
G|-2-2-2-2-2-2-2-2-----------------5-5-5-5-5-5-5-5----------------------------|
D|-2-2-2-2-2-2-2-2-3-3-3-3-3-3-3-3-5-5-5-5-5-5-5-5-5-5-5-5-5-5-5-5------------|
A|-0-0-0-0-0-0-0-0-3-3-3-3-3-3-3-3-3-3-3-3-3-3-3-3-5-5-5-5-5-5-5-5-----x2-----|
E|-----------------1-1-1-1-1-1-1-1-----------------3-3-3-3-3-3-3-3------------|

VERSE

e|----------------------------------------------------------------------------|
B|----------------------------------------------------------------------------|
G|----------------------------------------------------------------------------|
D|--------------------------------------------------------------------x2------|
A|-0-0-0-0-0-0-0-0-----------------3-3-3-3-3-3-3-3----------------------------|
E|-----------------1-1-1-1-1-1-1-1-----------------3-3-3-3-3-3-3-3------------|

PRE-CHORUS

e|----------------------------------------------------------------------------|
B|----------------------------------------------------------------------------|
G|----------------------------------------------------------------------------|
D|-2---2---2-2-2-2-----------------2---2---2-2-2-2----------------------------|
A|-0---0---0-0-0-0-3---3---3-3-3-3-0---0---0-0-0-0-5---5---5-5-5-5------------|
E|-----------------1---1---1-1-1-1-----------------3---3---3-3-3-3------------|

e|----------------------------------------------------------------------------|
B|----------------------------------------------------------------------------|
G|----------------------------------------------------------------------------|
D|-----------------2---2---2-2-2-2--------------------------------------------|
A|-3---3---3-3-3-3-0---0---0-0-0-0--5-5-5-5-5-5-5-5-5-5-5-5-5-5-5-5-----------|
E|-1---1---1-1-1-1------------------3-3-3-3-3-3-3-3-3-3-3-3-3-3-3-3-----------|


CHORUS

e|----------------------------------------------------------------------------|
B|----------------------------------------------------------------------------|
G|-5-5-5-5-5-5-5-5-2-2-2-2-2-2-2-2--------------------------------------------|
D|-5-5-5-5-5-5-5-5-2-2-2-2-2-2-2-2-3-3-3-3-3-3-3-3-5-5-5-5-5-5-5-5----x2------|
A|-3-3-3-3-3-3-3-3-0-0-0-0-0-0-0-0-3-3-3-3-3-3-3-3-5-5-5-5-5-5-5-5------------|
E|---------------------------------1-1-1-1-1-1-1-1-3-3-3-3-3-3-3-3------------|

POST-CHORUS

e|----------------------------------------------------------------------------|
B|----------------------------------------------------------------------------|
G|-2-2-2-2-2-2-2-2-----------------5-5-5-5-5-5-5-5----------------------------|
D|-2-2-2-2-2-2-2-2-3-3-3-3-3-3-3-3-5-5-5-5-5-5-5-5-5-5-5-5-5-5-5-5------------|
A|-0-0-0-0-0-0-0-0-3-3-3-3-3-3-3-3-3-3-3-3-3-3-3-3-5-5-5-5-5-5-5-5-----x2-----|
E|-----------------1-1-1-1-1-1-1-1-----------------3-3-3-3-3-3-3-3------------|


VERSE

e|----------------------------------------------------------------------------|
B|----------------------------------------------------------------------------|
G|----------------------------------------------------------------------------|
D|--------------------------------------------------------------------x2------|
A|-0-0-0-0-0-0-0-0-----------------3-3-3-3-3-3-3-3----------------------------|
E|-----------------1-1-1-1-1-1-1-1-----------------3-3-3-3-3-3-3-3------------|

PRE-CHORUS

e|----------------------------------------------------------------------------|
B|----------------------------------------------------------------------------|
G|----------------------------------------------------------------------------|
D|-2---2---2-2-2-2-----------------2---2---2-2-2-2----------------------------|
A|-0---0---0-0-0-0-3---3---3-3-3-3-0---0---0-0-0-0-5---5---5-5-5-5------------|
E|-----------------1---1---1-1-1-1-----------------3---3---3-3-3-3------------|

e|----------------------------------------------------------------------------|
B|----------------------------------------------------------------------------|
G|----------------------------------------------------------------------------|
D|-----------------2---2---2-2-2-2--------------------------------------------|
A|-3---3---3-3-3-3-0---0---0-0-0-0--5-5-5-5-5-5-5-5-5-5-5-5-5-5-5-5-----------|
E|-1---1---1-1-1-1------------------3-3-3-3-3-3-3-3-3-3-3-3-3-3-3-3-----------|

CHORUS

e|----------------------------------------------------------------------------|
B|----------------------------------------------------------------------------|
G|-5-5-5-5-5-5-5-5-2-2-2-2-2-2-2-2--------------------------------------------|
D|-5-5-5-5-5-5-5-5-2-2-2-2-2-2-2-2-3-3-3-3-3-3-3-3-5-5-5-5-5-5-5-5----x2------|
A|-3-3-3-3-3-3-3-3-0-0-0-0-0-0-0-0-3-3-3-3-3-3-3-3-5-5-5-5-5-5-5-5------------|
E|---------------------------------1-1-1-1-1-1-1-1-3-3-3-3-3-3-3-3------------|

BRIDGE

e|----------------------------------------------------------------------------|
B|----------------------------------------------------------------------------|
G|-2-----------------------------------------7-7-7-7-7-7-7-7-7-7-7-7-7-7-7-7--|
D|-2----5----5-5-5-5-5-5-5-5-5-5-5-5-5-5-5-5-7-7-7-7-7-7-7-7-7-7-7-7-7-7-7-7--|
A|-0----5----5-5-5-5-5-5-5-5-5-5-5-5-5-5-5-5-5-5-5-5-5-5-5-5-5-5-5-5-5-5-5-5--|
E|------3----3-3-3-3-3-3-3-3-3-3-3-3-3-3-3-3----------------------------------|x2

CHORUS

e|-------------------------------------------------------------------------|
B|-------------------------------------------------------------------------|
G|-5~----------------------------------------------------------------------|
D|-5~----------------------------------------------------------------------|
A|-3~-------------------------------5-5-5-5-5-5-5-5-5-5-5-5-5-5-5-5--------|
E|----------------------------------3-3-3-3-3-3-3-3-3-3-3-3-3-3-3-3--------|

e|----------------------------------------------------------------------------|
B|----------------------------------------------------------------------------|
G|-5-5-5-5-5-5-5-5-2-2-2-2-2-2-2-2--------------------------------------------|
D|-5-5-5-5-5-5-5-5-2-2-2-2-2-2-2-2-3-3-3-3-3-3-3-3-5-5-5-5-5-5-5-5----x2------|
A|-3-3-3-3-3-3-3-3-0-0-0-0-0-0-0-0-3-3-3-3-3-3-3-3-5-5-5-5-5-5-5-5------------|
E|---------------------------------1-1-1-1-1-1-1-1-3-3-3-3-3-3-3-3------------|

e|----------------------------------------------------------------------------|
B|----------------------------------------------------------------------------|
G|----------------------------------------------------------------------------|
D|-3-3-3-3-3-3-3-3-3-3-3-3-3-3-3-3-5-5-5-5-5-5-5-5-5-5-5-5-5-5-5-5---3~-------|
A|-3-3-3-3-3-3-3-3-3-3-3-3-3-3-3-3-5-5-5-5-5-5-5-5-5-5-5-5-5-5-5-5---3~-------|
E|-1-1-1-1-1-1-1-1-1-1-1-1-1-1-1-1-3-3-3-3-3-3-3-3-3-3-3-3-3-3-3-3---1~-------|



GTR 3/Synth--------------------------------------------------------------------------|

The synth is actually not used very frequently... mosty in the introduction...
and for the bends, be sure to use a modulator...

INTRO

e|------------15brbrbr--------------------------------------------------------|
B|-----13--------------15-17----13---------13---------------------------------|
G|--14----14--12brbrbr-------14----14---14----14------------------------------|
D|-------------------------------------------------------------x4-------------|
A|----------------------------------------------------------------------------|
E|----------------------------------------------------------------------------|

VERSE

e|----------------------------------------------------------------------------|
B|----------------------------------------------------------------------------|
G|----------------------------------------------------------------------------|
D|------------------------tacet-----------------------------------------------|
A|----------------------------------------------------------------------------|
E|----------------------------------------------------------------------------|

PRE-CHORUS

e|----------------------------------------------------------------------------|
B|----------------------------------------------------------------------------|
G|----------------------------------------------------------------------------|
D|------------------------tacet-----------------------------------------------|
A|----------------------------------------------------------------------------|
E|----------------------------------------------------------------------------|

CHORUS

e|----------------------------------------------------------------------------|
B|-13-13-13-13-13-13-13-13-13-13-13-13-13-13-13-13-13-13-13-13-13-13----------|
G|----------------------------------------------------------------------------|
D|-10-10-10-10-10-10-10-10-10-10-10-10-10-10-10-10-10-10-10-10-10-10----------|
A|----------------------------------------------------------------------------|
E|----------------------------------------------------------------------------|

e|----------------------------------------------------------------------------|
B|-13-13-13-13-13-13-13-13-13-13-13-13-13-13-13-13-13-13-13-13-13-13----------|
G|----------------------------------------------------------------------------|
D|-10-10-10-10-10-10-10-10-10-10-10-10-10-10-10-10-10-10-10-10-10-10----------|
A|----------------------------------------------------------------------------|
E|----------------------------------------------------------------------------|

POST-CHORUS

e|------------15brbrbr--------------------------------------------------------|
B|-----13--------------15-17----13---------13---------------------------------|
G|--14----14--12brbrbr-------14----14---14----14------------------------------|
D|-----------------------------------------------------------x2---------------|
A|----------------------------------------------------------------------------|
E|----------------------------------------------------------------------------|

VERSE

e|----------------------------------------------------------------------------|
B|----------------------------------------------------------------------------|
G|----------------------------------------------------------------------------|
D|------------------------tacet-----------------------------------------------|
A|----------------------------------------------------------------------------|
E|----------------------------------------------------------------------------|

PRE-CHORUS

e|----------------------------------------------------------------------------|
B|----------------------------------------------------------------------------|
G|----------------------------------------------------------------------------|
D|------------------------tacet-----------------------------------------------|
A|----------------------------------------------------------------------------|
E|----------------------------------------------------------------------------|

CHORUS

e|----------------------------------------------------------------------------|
B|-13-13-13-13-13-13-13-13-13-13-13-13-13-13-13-13-13-13-13-13-13-13----------|
G|----------------------------------------------------------------------------|
D|-10-10-10-10-10-10-10-10-10-10-10-10-10-10-10-10-10-10-10-10-10-10----------|
A|----------------------------------------------------------------------------|
E|----------------------------------------------------------------------------|

e|----------------------------------------------------------------------------|
B|-13-13-13-13-13-13-13-13-13-13-13-13-13-13-13-13-13-13-13-13-13-13----------|
G|----------------------------------------------------------------------------|
D|-10-10-10-10-10-10-10-10-10-10-10-10-10-10-10-10-10-10-10-10-10-10----------|
A|----------------------------------------------------------------------------|
E|----------------------------------------------------------------------------|

BRIDGE

e|----------------------------------------------------------------------------|
B|----------------------------------------------------------------------------|
G|----------------------------------------------------------------------------|
D|--------------------------------tacet---------------------------------------|
A|----------------------------------------------------------------------------|
E|----------------------------------------------------------------------------|

e|----------------------------------------------------------------------------|
B|----------------------------------------------------------------------------|
G|--10-10-10-9-9-9--------10-10-10-9-9----------------------------------------|
D|-----------------10-10---------------10-10----------------------------------|
A|----------------------------------------------------------------------------|
E|----------------------------------------------------------------------------|

e|----------------------------------------------------------------------------|
B|----------------------------------------------------------------------------|
G|--------------------------------tacet---------------------------------------|
D|----------------------------------------------------------------------------|
A|----------------------------------------------------------------------------|
E|----------------------------------------------------------------------------|

e|----------------------------------------------------------------------------|
B|-----------------------------------------------13~--------------------------|
G|--10-10-10-9-9-9-------10-10-9-9-----------------~--------------------------|
D|-----------------10-10-----------12-12-10-10---10~--------------------------|
A|----------------------------------------------------------------------------|
E|----------------------------------------------------------------------------|


CHORUS

e|----------------------------------------------------------------------------|
B|-13-13-13-13-13-13-13-13-13-13-13-13-13-13-13-13-13-13-13-13-13-13----------|
G|----------------------------------------------------------------------------|
D|-10-10-10-10-10-10-10-10-10-10-10-10-10-10-10-10-10-10-10-10-10-10----------|
A|----------------------------------------------------------------------x4----|
E|----------------------------------------------------------------------------|

e|----------------------------------------------------------------------------|
B|-13-13-13-13-13-13-13-13-13-13-13-13-13-13-13-13--13--13--13--13~-----------|
G|----------------------------------------------------------------~-----------|
D|-10-10-10-10-10-10-10-10-10-10-10-10-10-10-10-10--10--10--10--10~-----------|
A|----------------------------------------------------------------------------|
E|----------------------------------------------------------------------------|

FIN.

Please rate and comment...
God Bless...
Tap to rate this tab
 
# A B C D E F G H I J K L M N O P Q R S T U V W X Y Z