Song name
# A B C D E F G H I J K L M N O P Q R S T U V W X Y Z

Hillsong United - Take It All tab

Highlighted       Show chord diagrams
This is how I play Take it all by Hillsong United. Please post a comment, view my 
profile, or vote. Thank you


          GUITAR 1 ( POWER CHORDS )

INTRO RIFF (DISTORTION)  RELATIVELY FAST

e|-----------5-5-5-5--3-3-3-3--2-2-2-2--3-3-3-3--------------------------|
B|-----------------------------------------------------------------------|
G|-----------------------------------------------------------------------|
D|-----------------------------------------------------------------------| X7
A|-----------------------------------------------------------------------|
E|-----------------------------------------------------------------------|


VERSE

e|---------------------------------------------------------------|
B|---------------------------------------------------------------|
G|---------------------------------------------------------------|
D|---------------5-5-5--5-5-5--5-5-5--------4--------------------|
A|---------------5-5-5--5-5-5--5-5-5---0-0--2--------------------|
E|---------------3-3-3--3-3-3--3-3-3---0-0-----------------------|
       THROUGHOUT THE VERSE

PRE-CHORUS

e|---------------------------------------------------------------------|
B|---------------------------------------------------------------------|
G|------------------------5-5-5-5-5-5-5-5------------------------------|
D|---------2-X--2-2-X-X---5-5-5-5-5-5-5-5------------------------------|
A|---------2-X--2-2-X-X---3-3-3-3-3-3-3-3------------------------------|
E|---------0-X--0-0-X-X------------------------------------------------|

CHORUS

e|--------------------------------------------------------------------------|
B|--------------------------------------------------------------------------|
G|--------------------------------------------------------------------------|
D|-----------------------------7-777777------------5-555555-----------------|
A|-----------------5--555555---5-555555--2-222222--3-333333-----------------|
E|-----------------3--333333-------------0-000000---------------------------|
X2 BUT ON THE SECOUND TIME DO NOT PLAY THE LAST CHORD! ONLY PLAY THE "EM" REPEATEDLY.

       GUITAR 2  ( CHORDS )

INTRO: (BASS)  G---/---(D)/F# BM 

 G
    Searching the world,

The lost will be found.

in freedom we live,

As one we cry out.

You carried the cross,
                   EM
You died and rose again,

My God,
      C
I'll only ever give my all.



Chorus:

 G                D
   Jesus, we're living for Your name,
        EM                 C
We'll never be ashamed of you

Woah oh oh oh
 G
   Our praise
     D
And all we are today
AM 
Take, take, take, it all.
AM                       G
Take, take, take, it all.


 G
   You sent your Son,

From heaven to earth,

Delivered us all,

It's Eternally heard,

I Searched for Truth
                     EM
and All I found was you

My God,
      C
I'll only ever give my all.



(Chorus 2x)


AM          EM      D       C
Running to the one who heals  the blind.
AM         EM        D
Following the shining light
AM            EM         D     C
In Your hands the power to save  the world
         G
And my life.(2x)



(Repeat Chorus 3x)

 G                D
   Jesus, we're living for Your name.
        EM                  C
We'll never be ashamed of You

(Woah oh oh oh)
G
Our praise
      D
And all we are today
AM
Take, take, take, it all.
AM                     G
Take, take, take, it all.


 G                D
   Jesus, we're living for Your name.
         EM                C
We'll never be ashamed of You
G
Our praise
     D
And all we are today
AM
Take, take, take, it all.
AM
Take, take, take, it all.
AM                       G
Take, take, take, it all.
Tap to rate this tab
# A B C D E F G H I J K L M N O P Q R S T U V W X Y Z