Song name
# A B C D E F G H I J K L M N O P Q R S T U V W X Y Z

Hillsong United - Freedom Is Here tab

Artist: Hillosng United
Album: Across the Earth
Song: Freedom is Here
Tabbed by: Ben Gounder


Starting Intro:

e|------------------------------------------------------12-12------|
B|------------------------------------------12-12-14-14------------|
G|------11-11-11-11-11-11-11-11-11-11-11-11-------------------14-14|
D|-----------------------------------------------------------------|
A|-----------------------------------------------------------------|
E|-----------------------------------------------------------------|

Intro:

e|-------------------------------------12-12------|
B|-------------------------12-12-14-14------------|
G|-11-11-11-11-11-11-11-11-------------------14-14|
D|------------------------------------------------|
A|------------------------------------------------|
E|------------------------------------------------|

e|-------------------------------------12-12------|
B|-12-12-12-12-12-12-12-12-12-12-14-14------------|
G|-------------------------------------------14-14|
D|------------------------------------------------|
A|------------------------------------------------|
E|------------------------------------------------|
Tap to rate this tab
# A B C D E F G H I J K L M N O P Q R S T U V W X Y Z