Song name
# A B C D E F G H I J K L M N O P Q R S T U V W X Y Z

Hillsong United - Desert Song tab

-------------------------------------------------------------------------------
			     Desert Song (intro & outro) - Hillsongs United
-------------------------------------------------------------------------------
Tabbed by: Jackt
Email: thebestpiller@hotmail.com


(Desert Song - A_Cross // the_EARTH: Tear Down The Walls (2009) - Hillsongs United)

Intro

e|--10--9------7-------------------------------------------------------------|
B|---------10-----7~------10--7~---------------------------------------------|
G|----------------------9-------------9--7--6--7-----------------------------|
D|--------------------------------------------------9------------------------|
A|---------------------------------------------------------------------------|
E|---------------------------------------------------------------------------|

e|--10--9------7--------------------------7----------------------------------|
B|---------10-----7~------10--7~-----10--------------------------------------|
G|----------------------9---------9------------------------------------------|
D|---------------------------------------------------------------------------|
A|---------------------------------------------------------------------------|
E|---------------------------------------------------------------------------|


Outro

e|--10--9------7-------------------------------------------------------------|
B|---------10-----7~------10--7~---------------------------------------------|
G|----------------------9-------------9--7--6--7-----------------------------|
D|--------------------------------------------------9------------------------|
A|---------------------------------------------------------------------------|
E|---------------------------------------------------------------------------|

e|--10--9------7-------------------------------------------------------------|
B|---------10-----7~------10--7~--------10--12-------------------------------|
G|----------------------9---------9--7---------------------------------------|
D|---------------------------------------------------------------------------|
A|---------------------------------------------------------------------------|
E|---------------------------------------------------------------------------|


Luke 17:10
"So you also, when you have done everything you were told to do, should say, 'We are 
servants; we have only done our duty.'"


| /  slide up
| \  slide down
| h  hammer-on
| p  pull-off
| ~  vibrato
| +  harmonic
| x  Mute note
===============================================================================
Tap to rate this tab
 
# A B C D E F G H I J K L M N O P Q R S T U V W X Y Z