Song name
# A B C D E F G H I J K L M N O P Q R S T U V W X Y Z

Hillsong United - Yours Forever tab

Song name: Yours forever,
Artist: Hillsong United,
Album: Across The Earth: Tear Down The Walls

Intro tab:

This is were i worked out how to play the tab
E: ------------------------------------------|
B:-------------------------------------------|
G:-------------------------------------------|
D:9-9-7-9---7-4-7-----9-9-7-9----------------|
A:-------7-5-----------------7-5-7-----------|
E:---------------------------------7---------|

And this is were they play it at hillsong, its exactly the same just a different position
E: ------------------------------------------|
B:-------------------------------------------|
G:4-4-2-4-----2-2 ----4-4-2-4----------------|
D:--------2-0--4-------------2-0-2-----------|
A:---------------------------------2---------|
E:-------------------------------------------|

Hope its helpful

JimmyNics
Tap to rate this tab
 
# A B C D E F G H I J K L M N O P Q R S T U V W X Y Z