Song name
# A B C D E F G H I J K L M N O P Q R S T U V W X Y Z

Hillsong United - Freedom Is Here tab

Intro:

T = right hand tap
h1 = left hand hammer, index finger
h2 = left hand hammer, middle finger
h3 = left hand hammer, ring finger

     D                         A                                      

     T  h1 h3 T  h1 h3 T  h3    sim.                           

e|-------------------------|-------------------------|
B|-------10-------10----10-|-------10-------10----10-|
G|----07-------07----------|-------------------------|
D|-12-------12-------12----|----07-------07----------|
A|-------------------------|-12-------12-------12----|
E|-------------------------|-------------------------|

  
  E                         Bm   
        h2       h2    h2   
|-------------------------|-------------------------|
|-------09-------09----09-|-------10-------10----10-|
|-------------------------|----07-------07----------|
|----09-------09----------|-12-------12-------12----|
|-14-------14-------14----|-------------------------|
|-------------------------|-------------------------|



Octave riff:

x = dead note

e|-07-07-09-09-12-12-------|-------------------------|
B|-x--x--x--x--x--x--10-10-|-07----------------------|
G|-04-04-06-06-09-09-x--x--|-x-----------------------|
D|-------------------07-07-|-04----------------------|
A|-------------------------|-------------------------|
E|-------------------------|-------------------------|


 |-07-07-09-09-12-12-05-05-|-07----------------------|
 |-x--x--x--x--x--x--x--x--|-x-----------------------|
 |-04-04-06-06-09-09-02-02-|-04----------------------|
 |-------------------------|-------------------------|
 |-------------------------|-------------------------|
 |-------------------------|-------------------------|
Tap to rate this tab
 
# A B C D E F G H I J K L M N O P Q R S T U V W X Y Z