Song name
# A B C D E F G H I J K L M N O P Q R S T U V W X Y Z

Hillsong United - All Day tab

                        All Day by:Hillsong united
                          tabbed by: Josh Simons

verses 1-2
1)------------2----2--------------------------------------------------|
2)------------2----2--------------------------------------------------|
3)------1-----4----2--------------------------------------------------|
4)-6----2-x2--4-x2-4-x2--------------------x4-------------------------|
5)-6-x2-2-----2----4--------------------------------------------------|
6)-4----------2----2--------------------------------------------------|


guitar solo
1)--------------------------------------------------------------------|
2)-12-12-11-11-------x4---on 4th time add-----------15^-15-13---------|
3)-------------11-11--------------------------------------------------|

pre course
1)------------2----2--------------------------------------------------|
2)------------2----2--------------------------------------------------|
3)------------4----2--------------------------------------------------|
4)-6----1-----4-x2-4-x2-----------------------------------------------|
5)-6-x2-2-x2--2----4--------------------------------------------------|
6)-4----2-----2----2--------------------------------------------------|

course
1)-2---------2----2----------------------------------------------------|
2)-2---------2----2----------------------------------------------------|
3)-4----1----4----2----------------------------------------------------|
4)-4-x2-2-x2-4-x2-4-x2-------------------------------------------------|
5)-2----2----2----4----------------------------------------------------|
6)-2---------2----2----------------------------------------------------|


bridge
1)-4-----------2-----------4-----------2-------------------------------|
2)-4-----------2-----------4-----------2-------------------------------|
3)-4-----1-----2-----1-----4-----1-----4-----1-------------------------|
4)-6-x2--2-x2--4-x2--2-x2--6-x2--2-x2--4-x2--2-x2----------------------|
5)-6-----2-----4-----2-----6-----2-----2-----2-------------------------|
6)-4-----------2-----------4-----------2-------------------------------|

                 Or If you want you can use the chords:

Verse 1:
G# E B F#
I don't care what they say about me
G# E B F#
It's alright, alright
G# E B F#
I don't care they think about me
G# E B F#
It's alright, they'll get it one day


Pre-Chorus
G# E B F#
I love you, I'll follow you
G# E B F#
You are my, my life
G# E B F#
I will read my bible and pray
G# E B F#
I will follow you all day


(Guitar Solo)
1)--------------------------------------------------------------------|
2)-12-12-11-11-------x4---on 4th time add-----------15^-15-13---------|
3)-------------11-11--------------------------------------------------|

Verse 2:
G# E B F#
I don't care what it costs anymore
G# E B F#
Cos' you gave it all and I'm following you
G# E B F#
I don't care what it takes anymore
G# E B F#
No matter what happens I'm going your way

Pre-Chorus

Chorus:
B E
All Day
B F#
All Day now
B E
All Day
G# E

Verse 1

Pre-Chorus

Chorus

Bridge:
C#| E| C#| E| C#| E| B| E|
C# E C# Anyone around can see E C#
just how good you've been to me E C#
For all my friends that don't know you E B E
I pray that you would save them too

Hope this tab is usefull
-GodBless  =)
Tap to rate this tab
# A B C D E F G H I J K L M N O P Q R S T U V W X Y Z