Song name
# A B C D E F G H I J K L M N O P Q R S T U V W X Y Z

Hillsong United - Take It All tab

Hillsong United
Take It All


x/muted strumming
^/bend(or bend and release)
~/vibrato
h-harmonic
u/ upstroke
d/ downstroke


Use medium gain with a bright tone throughout and a triplet delay for the lead parts.


Intro/Verse-

guitar one
------------------------------14--14--14--|
--14-14-14--12-12-12--11-11-11--11--11----|
------------------------------------------|
------------------------------------------|
------------------------------------------|
------------------------------------------|

------------------------------11--11--11--|
--14-14-14--12-12-12--11-11-11--11--11----|
------------------------------------------|
------------------------------------------|
------------------------------------------|
------------------------------------------|

------------------------------14--14--14--|
--14-14-14--12-12-12--11-11-11--11--11----|
------------------------------------------|
------------------------------------------|
------------------------------------------|
------------------------------------------|

----------------------------xxxxxxxx------|
--14-14-14--12-12-12--11-11-xxxxxxxx------|
----------------------------xxxxxxxx------|hit some harmonics around the 9th fret
----------------------------xxxxxxxx------|whilst hitting muted strings
----------------------------xxxxxxxx------|
----------------------------xxxxxxxx------|


guitar two (after "I'll only ever give my all")
-------------------------------------------|
--------------------------4-4--------------|
4-4-4--4-4-4--4-4-4--3-3-------------------|
--------------------------1-1--------------|
2-2-2--2-2-2--2-2-2--1-1-------------------|
-------------------------------------------|


Pre-Chorus

guitar one
---h-h--hhhhhhhh---h-h-h-h-h-h-h-h--hhhhhhhh--x--|
--1212--77777777--1212121212121212--77777777--x--|
----------------------------------------------x--| x2
----------------------------------------------x--|
----------------------------------------------x--|
----------------------------------------------x--|


guitar two
-------0-0-0-0-0-0-0-0------|
-------0-0-0-0-0-0-0-0------|
-------1-1-1-1-1-1-1-1------|
--6-6--2-2-2-2-2-2-2-2------|
--6-6--2-2-2-2-2-2-2-2------|
--4-4--0-0-0-0-0-0-0-0------|


Chorus

guitar one
--2-2-2-2-2-2--2-2-2-2-2-2--4-4-4-4-4-4--0-0-0-0-0-0--|
--2-2-2-2-2-2--2-2-2-2-2-2--4-4-4-4-4-4--0-0-0-0-0-0--|
--4-4-4-4-4-4--3-3-3-3-3-3--4-4-4-4-4-4--1-1-1-1-1-1--|
--4-4-4-4-4-4--4-4-4-4-4-4--6-6-6-6-6-6--2-2-2-2-2-2--|
--2-2-2-2-2-2--4-4-4-4-4-4--6-6-6-6-6-6--2-2-2-2-2-2--|
---------------2-2-2-2-2-2--4-4-4-4-4-4--0-0-0-0-0-0--|

                                                            on second time
--2-2-2-2-2-2--2-2-2-2-2-2--4--   -------------------|
--2-2-2-2-2-2--2-2-2-2-2-2--5--   -------------------|
--4-4-4-4-4-4--3-3-3-3-3-3--6--   --8-8-8-8-8-8-8-8--|
--4-4-4-4-4-4--4-4-4-4-4-4--6--   -------------------|
--2-2-2-2-2-2--4-4-4-4-4-4--4--   --6-6-6-6-6-6-6-6--|
---------------2-2-2-2-2-2-----   -------------------|

guitar two
--2-2-2-2-2-2--2-2-2-2-2-2--4-4-4-4-4-4--0-0-0-0-0-0--|
--2-2-2-2-2-2--2-2-2-2-2-2--4-4-4-4-4-4--0-0-0-0-0-0--|
--4-4-4-4-4-4--3-3-3-3-3-3--4-4-4-4-4-4--1-1-1-1-1-1--|
--4-4-4-4-4-4--4-4-4-4-4-4--6-6-6-6-6-6--2-2-2-2-2-2--|
--2-2-2-2-2-2--4-4-4-4-4-4--6-6-6-6-6-6--2-2-2-2-2-2--|
---------------2-2-2-2-2-2--4-4-4-4-4-4--0-0-0-0-0-0--|


--2-2-2-2-2-2--2-2-2-2-2-2------------------|
--2-2-2-2-2-2--2-2-2-2-2-2------------------|
--4-4-4-4-4-4--3-3-3-3-3-3---------4~~~~----|
--4-4-4-4-4-4--4-4-4-4-4-4------------------|
--2-2-2-2-2-2--4-4-4-4-4-4--4^5^4-----------|
---------------2-2-2-2-2-2------------------|


Bridge

guitar one
------------------------------------------------|
------------------------------------------------|
--4-4-4-4--6-6-6-6--8-8-8-8--9-9-9-9------------|
------------------------------------------------|
--2-2-2-2--4-4-4-4--6-6-6-6--7-7-7-7------------|
------------------------------------------------|

--4-4--4-4--2-2--0-0--4-4--4-4--2-2--------2--------|
--5-5--4-4--2-2--0-0--5-5--4-4--2-2-----------------|
--6-6--4-4--3-3--1-1--6-6--4-4--3-3--3^4^3---3^4^3--|
--6-6--6-6--4-4--2-2--6-6--6-6--4-4-----------------|
--4-4--6-6--4-4--2-2--4-4--6-6--4-4-----------------|
-------4-4--2-2--0-0-------4-4--2-2-----------------|

--4-4--4-4--2-2--0-0-----------------------------------|
--5-5--4-4--2-2--0-0-----------------------------------|
--6-6--4-4--3-3--1-1--8-8-8-8-8-8-8-8-8-8-8-8-8-8-8-8--|
--6-6--6-6--4-4--2-2-----------------------------------|
--4-4--6-6--4-4--2-2--6-6-6-6-6-6-6-6-6-6-6-6-6-6-6-6--|
-------4-4--2-2--0-0-----------------------------------|


guitar two
-----------------------------------|
-----------------------------------|
--4-4-4-4-4-4-4-4-4-4-4-4-4-4-4-4--|
--4-4-4-4-4-4-4-4-4-4-4-4-4-4-4-4--|
--2-2-2-2-2-2-2-2-2-2-2-2-2-2-2-2--|
-----------------------------------|

-----------------0-0--------------------------------0-0--|
-----------------0-0--------------------------------0-0--|
--6-6------------1-1--6-6------------6-6------------1-1--|
--6-6--6-6--4-4--2-2--6-6--6-6--4-4--6-6--6-6--4-4--2-2--|
--4-4--6-6--4-4--2-2--4-4--6-6--4-4--4-4--6-6--4-4--2-2--|
-------4-4--2-2--0-0-------4-4--2-2-------4-4--2-2--0-0--|
                                                on second time end with this
-----------------------------------   -----|
-----------------------------------   -----|
--4-4-4-4-4-4-4-4-4-4-4-4-4-4-4-4--   --4--|
--4-4-4-4-4-4-4-4-4-4-4-4-4-4-4-4--   -----|let ring
--2-2-2-2-2-2-2-2-2-2-2-2-2-2-2-2--   --2--|
-----------------------------------   -----|


Chorus (quiet build up)

guitar one(acoustic guitar palm mutes chords...play on "take, take, take it all" refrain)
--0--
--0--
--0--
--0--let ring
--0--
--0--

repeat main chorus
Tap to rate this tab
 
# A B C D E F G H I J K L M N O P Q R S T U V W X Y Z