Song name
# A B C D E F G H I J K L M N O P Q R S T U V W X Y Z

Hillsong United - Oh You Bring tab

			     Oh You Bring
                            Hillsong United
Tabbed by: Miho
Email:DatzdAtBoi

Tuning:E-A-D-G-B-e

e|---------------------------------------------------------------------------|
B|--8------13------8---------10----------------------------------------------|
G|-----------12--------10---------9------------------------------------------|
D|----9--------------------9-------------------------------------------------|
A|------10-------12------------------9---------------------------------------|
E|---------------------------------------------------------------------------|

e|---------------------------------------------------------------------------|
B|----------------------------12-10-----10----------------------10-13-12-----|
G|-----------------------------------12-----12-13-12-10-8-10-12--------------|
D|-9-4-5-10-9-7-5-7-9--------------------------------------------------------|
A|---------------------------------------------------------------------------|
E|---------------------------------------------------------------------------|

Tap to rate this tab
 
# A B C D E F G H I J K L M N O P Q R S T U V W X Y Z