Song name
# A B C D E F G H I J K L M N O P Q R S T U V W X Y Z

Hillsong United - Oh You Bring tab

Hillsong United
Oh You Bring

Tabbed by: Brenden

Tuning: standard


I am pretty sure this is how he plays the intro, it sounds pretty good to me. The tabs 
up a bit after he starts singing, so just use these for the intro.

e|----7--------7--7------7--7-------7---8----7------------7-------------------|
B|-----------------------------------------------8-----------8----------------|
G|--------7----------7---------7----------------------7-----------------------|
D|----------------------------------------------------------------------------|
A|----------------------------------------------------------------------------|
E|----------------------------------------------------------------------------|

e|-------7----------7----5--7--7----------------------------------------------|
B|----------8-----------------------------------------------------------------|
G|---7----------7-------------------------------------------------------------|
D|----------------------------------------------------------------------------|
A|----------------------------------------------------------------------------|
E|----------------------------------------------------------------------------|

Rate it if you can please!
Tap to rate this tab
 
# A B C D E F G H I J K L M N O P Q R S T U V W X Y Z